Guitaretab - guitar tabs
Song name
# A B C D E F G H I J K L M N O P Q R S T U V W X Y Z

Spitalfield - Lasting First Impression tab

-------------------------------------------------------------------------------
			     Lasting First Impression - Spitalfield
-------------------------------------------------------------------------------
Tabbed by: xanman	
Email: xandervsoelen@hotmail.com

Tuning: EADGBe

Intro:
e|---------------------------------------------------------------------------|
B|---------------------------------------------------------------------------|
G|-3-3-3-4-5-------------3-4-5-------------3-3-3-4-5-------3-3-3-4-5---5~ ---|
D|-3-3-3-4-5--3-3-3-4-5--3-4-5--3-3-3-4-5--3-3-3-4-5-3-4-5-3-3-3-4-5---5~ ---|
A|-1-1-1-2-3--3-3-3-4-5--1-2-3--3-3-3-4-5--1-1-1-2-3-3-4-5-1-1-1-2-3---3~ ---|
E|------------1-1-1-2-3---------1-1-1-2-3------------1-2-3-------------------|


Verse 1 (Muted)
e|---------------------------------------------------------------------------|
B|---------------------------------------------------------------------------|
G|---------------------------------------------------------------------------|
D|-3-6-8-10-10-3-------------------------------------------------------------|
A|-3-6-8-10-10-3-------------------------------------------------------------|
E|-1-4-6-8--8--1-------------------------------------------------------------|

Guitar 2 plays something i really cant hear but its soemthing like this
e|---------------------------------------------------------------------------|
B|---------------------------------------------------------------------------|
G|-----17-/-18---------------------------------------------------------------|
D|-----x--/-x----------------------------------------------------------------|
A|-----15-/-16---------------------------------------------------------------|
E|---------------------------------------------------------------------------|
[ Tab from: http://www.guitaretab.com/s/spitalfield/84211.html ]
Verse 1 Continue
e|---------------------------------------------------------------------------|
B|---------------------------------------------------------------------------|
G|---------------------------------------------------------------------------|
D|-3-3--3-5-6--6-8-10--6-8-10-8-6-5-3----------------------------------------|
A|-3-3--3-5-6--6-8-10--6-8-10-8-6-5-3----------------------------------------|
E|-1-1--1-3-4--4-6-8---4-6-8--6-4-3-1----------------------------------------|

Chorus  "Hey, alright..."" (not correct bit sounds allot like it)
e|---------------------------------------------------------------------------|
B|---------------------------------------------------------------------------|
G|--10--3---3--5-------------------------------------------------------------|
D|--10--3---3--5-------------------------------------------------------------|
A|--8---1---1--3-------------------------------------------------------------|
E|---------------------------------------------------------------------------|

Chorus Outro "I dont know you, and i..."
e|---------------------------------------------------------------------------|
B|---------------------------------------------------------------------------|
G|--3-5---------------------1------------------------------------------------|
D|--x-x------3-3--1----3-3-----3-3--1---xx------------------------------------|
A|--1-3------3-3-------3-3-----3-3------xx-----------------------------------|
E|-----------1-1-------1-1-----1-1------xx-----------------------------------|

Verse 2, same as verse 1

Bridge is the same as intro
Outro is the same as the chorus outro

Enjoy!

| /  slide up
| \  slide down
| h  hammer-on
| p  pull-off
| ~  vibrato
| +  harmonic
| x  Mute note
===============================================================================
Related for Lasting First Impression tab
Advertisement will be closed in 10 seconds