Song name
# A B C D E F G H I J K L M N O P Q R S T U V W X Y Z

Spitalfield - Am I Ready tab

Band:Spitalfield
Song:Am I Ready
Tabbed by:Fabio de Hita
THIS IS MY FIRST TAB SO PLEASE DON'T BE BAD, I THINK ITS ALMOST CORRECT

Tuning:Standard

Intro 1 Acoustic

e|------------------------------|
B|------------------------------|
G|4-4-4-4-4-4h5-5-5-5-----------|
D|5-5-5-5-5-5-5-5-5-5-----------| x3
A|3-3-3-3-3-3-3-3-3-3-----------|
E|------------------------------|

Then
                      Electric
e|-------------------------------|
B|-------------------------------|
G|4-4-4-4-4-4--------------------|
D|5-5-5-5-5-5--5-5-5-5-----------|
A|3-3-3-3-3-3--5-5-5-5-----------|
E|-----------------3-3-3-3-------|

Intro 2
e|--2-------2------2----------------------|
B|----3-------3------3--------------------|
G|----------------------------------------|
D|0-----0------0------------5-5-5-5-------|
A|----------------------------5-5-5-5-----|
E|----------------------------3-3-3-3-----|
                                                                       X2
e|--2-------2------2----------------------|
B|----3-------3------3--------------------|
G|----------------------------------------|
D|0-----0------0------------2-2-2-2-------|
A|----------------------------2-2-2-2-----|
E|----------------------------0-0-0-0-----|

1St Verse

e|---|
B|---|
G|5--|
D|x--|
A|3--|
E|---|

Hit that clock and step out of sleep  It's a brand new day
You've got someone to be and that someone is you (that someone is you)

Bridge

e|-----------------------------------------------------------------|
B|-----------------------------------------------------------------|
G|-----------------------------------------------------------------|
D|-----5------5-----5------5------5------5------5------5/7|--------|
A|3-3---3-3---3-3---3-3---3-3---3-3---3-3---3-3--------------------|
E|-----------------------------------------------------------------|

e|----------------------------------------------------------------------------|
B|----------------------------------------------------------------------------|
G|----------------------------------------------------------------------------|
D|-----5------5-----5------5------5-----5-5-5-5---5-5----5/7\5----------------|
A|3-3---3-3---3-3---3-3---3-3----3--------------------3---------3-------------|
E|----------------------------------------------------------------------------|

Prechorus

e|----------------------------------------------|
B|----------------------------------------------|
G|------------------5-5-5-5-5-------------------|
D|------4---4/7---5-5-5-5-5--5-5-5-5| X2--------|      Not very sure of this part
A|------4---4/7---3-3-3-3-3--5-5-5-5------------|
E|2-2-2---2/5------------------3-3-3-3----------|
   * *               When u do sth you give it full heart
                      You're right through the door with a running start

Chorus

e|-----------------------------------------------------------------------------------------|
B|-----------------------------------------------------------------------------------------|
G|5-5-55-5-5-5-55-5-7-7-77-7-7-7-77-7----------------7-7-7-----------------------------9---|
D|x-x-xx-x-x-x-xx-x-x-x-xx-x-x-x-xx-x-5-5-5-5-5--7-7-7---2-2-2-2----------------9----------|
A|3-3-33-3-3-3-33-3-5-5-55-5-5-5-55-5-5-5-5-5-5--5-5-5---2-2-2-2----------------7----------|
E|---------------------------------------------------3-3-3-3-3------------0-0-0-0--0000-0--|

2nd Bridge

e|------------3------------------3-----0-------------------|
B|-------3-----------------3----------------0--------------|
G|---2----------------2------------------------------------|
D|0---------------0----------------------------------------|
A|---------------------------------------------------------|
E|---------------------------------------------------------|

2nd verse is always G5-A5-B5-F#5 with Pm, like this

G5                  A5
If anyone can, I knew you could
B5                                   F#5
You make that brand new shirt and tie look good
G5                      A5
And I knew you would
B5               F#5     E5
(I knew you could)

Now without Pm

G5           A5   B5          F#5   G5      A5      B5         F#5
Don't you ever say you'll never live the life you dreamt you'd lead


Then

e|--------------|
B|--------------|
G|7-9-7-4-------|
D|x-x-x-x|
A|5-7-5-2-----|
E|------------|

Prechorus

Chorus

Don't know how goes the solo guitar during the interlude but the Rhythm Guitar is the 
than the 2nd Bridge on Clean Channel

Chrous

Last Chorus

e|----------------------------------------------------------------------------------|
B|----------------------------------------------------------------------------------|
G|5----7----9----5----9----7-------------------7-7-7-----------------------------9--|
D|x----x----x----x----x----x----5-5-5-5-5--7-7-7---2-2-2-2----------------9---------|                 x2
A|3----5----7----3----7----5----5-5-5-5-5--5-5-5---2-2-2-2----------------7---------|
E|-----------------------------------3-3-3-3-3------------0-0-0-0--0000-0-----------|


At last

e|-----------------|
B|-----------------|
G|5----5----5------|
D|x----x----x------|
A|3----3----3------|
E|-----------------|
Tap to rate this tab
 
# A B C D E F G H I J K L M N O P Q R S T U V W X Y Z