Song name
# A B C D E F G H I J K L M N O P Q R S T U V W X Y Z

Spitfire - Stop tab

Main Riff
----------------------------------------------------------------------|
----------------------------------------------------------------------|
----------------------------------------------------------------------|
---77-------------- 77------------------------------------------------|
---66--7777---999---66------------------------------------------------|
-------6666---777-----------------------------------------------------|
Chorus
-----------------------------------------------------------------------------|
-----------------------------------------------------------------------------|
-----------------------------------------------------------------------------|
---66----44-------------66---------------------------------------------------|
---44----22-----444-----44---------------------------------------------------|
----------------222----------------------------------------------------------|
Tap to rate this tab
# A B C D E F G H I J K L M N O P Q R S T U V W X Y Z