Song name
# A B C D E F G H I J K L M N O P Q R S T U V W X Y Z

Splandit - Tonight Alright By My Side tab

Splandit - Tonight alright by my side
Drop D - Tuning


Chords:
e|-----------------------------|
B|-12---12---------------------|
G|-12---12--------------9---10-|
D|-12---12---12---10----9---10-|
A|-10---10---12---10----7----8-|
D|------10---12---10-----------|


Intro/Interlude
e|--------------------------------------|2mal,dann------------|
B|----------12-10----------------12--10-|---------12-12-12-12-|
G|-------12-------12----------12--------|---------12-12-12-12-|
D|----12-------------12----12-----------|---------12-12-12-12-|
A|-10-----------------------------------|---------------------|
D|----------------------10--------------|---------------------|


Oh the first thing that I think about at this morning
Is the fact that you left at the crack of dawn
And that this day will become so god damn long
till you finally get back to where you belong
and so I try to make the best with the rest of the day
coz life got to live it anyway.

And even if I don't know what to do,
I still got something to look forward to...

coz tonight, tonight everything will be alright, alright
coz you will be back tonight, tonight everything will be alright, alright coz you will 
be back by my side!!!

The day just began and I already want it to end
cause I can't hardly wait to see you again
and I don't think it's fair, that you went away,
left me behind, with a whole complete day
and if there's something, that I really hate
than a situation in which I'm forced to wait
and even if I don't know what to do,
I still got something to look forward to

And oh I'm grounded here for at least some more hours
till you come back to release me from these tortures
so do me the favour hurry up and please come soon
to relief me from this misery and real bad fortune,
cause time is my enemy that I can't escape from
and I don't know for how long I can stand it
till it will bring me down
and even if I don't know what to do,
I still got something to look forward to...
Tap to rate this tab
# A B C D E F G H I J K L M N O P Q R S T U V W X Y Z