Song name
# A B C D E F G H I J K L M N O P Q R S T U V W X Y Z

Splay - Sakura Addiction tab

Standard Tuning.
Note: This is the SPLAY version, not the Hibari and Mukuro version or Chrome version. 
This can be found in their album After the Melody Ends.
I'm going to post the Hibari and Mukuro version so don't worry ^^

e|--------------------|
B|-5--3-----5--3------|
G|-------555-----55555|
D|--------------------|
A|--------------------|
E|--------------------|

^Repeat 2 times

e|--------------------|
B|-5--3---------------|
G|-------555---4444-5-|
D|--------------------|
A|--------------------|
E|--------------------|

e|-------------33333-|
B|-5--3------3-------|
G|-------5-5---------|
D|-------------------|
A|-------------------|
E|-------------------|

And then all you have to do is repeat the whole thing twice.
Tap to rate this tab
# A B C D E F G H I J K L M N O P Q R S T U V W X Y Z