Song name
# A B C D E F G H I J K L M N O P Q R S T U V W X Y Z

Spleen United - In Peak Fitness Condition tab

----------------------------------------------------------------------------
	         In Peak Fitness Condition - Spleen United
----------------------------------------------------------------------------
Tabbed by: Bee-Ay
Email: Leviathan_ben@hotmail.com

Tuning: Drop D

Intro:
e|-------------------|
B|-------------------|
G|*-----------------*|
D|*-----0-----0---0-*|
A|------0-----0---0--|
D|--0-0-0-0-0-0-0-0--|
pm  . .   . .   .

First Chorus:
e|-------------------------------------------------------------------|
B|-------------------------------------------------------------------|
G|*-7-7-7-7-7-7-7-7-7-7-7-7-7-7-7-7---------------------------------*|
D|*-7-7-7-7-7-7-7-7-7-7-7-7-7-7-7-7-7-7-7-7-7-7-7-7-5-5-5-5-5-5-5-5-*|
A|--5-5-5-5-5-5-5-5-5-5-5-5-5-5-5-5-7-7-7-7-7-7-7-7-5-5-5-5-5-5-5-5--|
D|----------------------------------7-7-7-7-7-7-7-7-5-5-5-5-5-5-5-5--|

Riff after Chorus:
e|-------------------------------------------------------------------------------|
B|-------------------------------------------------------------------------------|
G|-------------------------------------------------------------------------------|
D|-0-0-0-0-12-14-10-0-0-0-0-0-12-14-10-12-0-0-0-0-12-14-10-0-0-0-0-0-12-14-10-12-|
A|-0-0-0-0-12-14-10-0-0-0-0-0-12-14-10-12-0-0-0-0-12-14-10-0-0-0-0-0-12-14-10-10-|
D|-0-0-0-0-12-14-10-0-0-0-0-0-12-14-10-12-0-0-0-0-12-14-10-0-0-0-0-0-12-14-10----|

e|---------------------------------------------------------------------|
B|---------------------------------------------------------------------|
G|-----------------------------------------------------------------5---|
D|-0-0-0-0-12-14-10-0-0-0-0-0-12-14-10/7-7-7-7-7-7-7-7-7-7-7-7-3-5-3-1-|
A|-0-0-0-0-12-14-10-0-0-0-0-0-12-14-10/7-7-7-7-7-7-7-7-7-7-7-7-3-5---1-|
D|-0-0-0-0-12-14-10-0-0-0-0-0-12-14-10/7-7-7-7-7-7-7-7-7-7-7-7-3-5---1-|


e|-------------------------------------------------------------------------------|
B|-------------------------------------------------------------------------------|
G|-------------------------------------------------------------------------------|
D|-------------------------------------------------------------------------------|
A|----------------------------------------------------------------------------10-|
D|-0-0-0-0-12-14-10-0---0-0-0-12-14-10-12-0-0-0-0-12-14-10-0---0-0-0-12-14-10----|


e|------------------------------------------------------------------------|
B|------------------------------------------------------------------------|
G|------------------------------------------------------------------------|
D|-----------------------------------------------------------------3------|
A|---------------------------------------------------------------------0~-|
D|-0-0-0-0-12-14-10-0---0-0-0-12-14-10/7-7-7-7-7-7-7-7-7-7-7-7-3-5---1-0~-|


Silent Chorus:
e|---------------------------------------------------------------------------------------------------|
B|---------------------------------------------------------------------------------------------------|
G|*-14-14-14-14-14-14-14-14-14-14-14-14-14-14-14-14-14-14-14-14-14-14-14-14-14-12-12-12-12-12-12-12-*|
D|*-x-x-x-x-x-x-x-x-x-x-x-x-x-x-x-x-x-x-x-x-x-x-x-x-x-x-x-x-x-x-x-x-x-x-x-x-x-x-x-x-x-x-x-x-x-x-x---*|
A|--12-12-12-12-12-12-12-12-12-12-12-12-12-12-12-12-12-12-12-12-12-12-12-12-12-10-10-10-10-10-10-10--|
D|---------------------------------------------------------------------------------------------------|

Bridge (just after chorus) clean guitar mixed very low:
e|---------------------------------------------------------------------------------------------------|
B|---------------------------------------------------------------------------------------------------|
G|*-19-19-19-19-19-19-19-19-19-19-19-19-19-19-19-19-14-14-14-14-14-14-14-16-16-12-12-12-12-12-12-12-*|
D|*-x--x--x--x--x--x--x--x--x--x--x--x--x--x--x--x--x--x--x--x--x--x--x--x--x--x--x--x--x--x--x--x--*|
A|--17-17-17-17-17-17-17-17-17-17-17-17-17-17-17-17-12-12-12-12-12-12-12-14-14-10-10-10-10-10-10-10--|
D|---------------------------------------------------------------------------------------------------|

Outro:
e|---------------------------------------------------------------------------------|
B|---------------------------------------------------------------------------------|
G|---------------------------------------------------------------------------------|
D|---------------------------------------------------------------------------------|
A|---------------------------------------------------------------------------------|
D|-0-0-0-0-12-14-10-0-0-0-0-0-12-14-10-12//7-7-7-12-14-10-12//5-5-5-12-14-10-10b12-|

e|---------------------------------------------------------------------------------|
B|---------------------------------------------------------------------------------|
G|---------------------------------------------------------------------------------|
D|----------------------------------------------------------------------------0~~--|
A|----------------------------------------------------------------------------0~~--|
D|-0-0-0-12-14-10-0-0-0-0-0-12-14-10-12//7-7-7-12-14-10-12//5-5-5-12-14-10-12-0~~--|

I know i seems difficult to read, but its very much correct.

Visit WWW.SPLEENUNITED.COM
Tap to rate this tab
# A B C D E F G H I J K L M N O P Q R S T U V W X Y Z