Song name
# A B C D E F G H I J K L M N O P Q R S T U V W X Y Z

Splin - Dvoe Ne Spyat tab

Help us improve GuitareTab! Take a short survey!
Another wonderful song by this class Russian band. You can check out the lyrics 
else - this is the exact way they play it on the guitar.

Enjoy!
Jens


Intro
-----
   am
          H
e-|--------------|-0-----------|
B-|-------01-----|-------0-----|
G-|-----2------2-|-----2-----2-|
D-|---2------2---|---2-----2---|
A-|-0------------|-------------|
E-|--------------|-------------|    (repeat this once)


Verse / Chorus
--------------
Verse:
   am             G             am (same as Intro)
          H                            H
e-|--------------|-------------|--------------|-0-----------|
B-|-------01-----|-------0-----|-------01-----|-------0-----|
G-|-----2----2---|-----0---0---|-----2------2-|-----2-----2-|
D-|---2--------2-|---0-------0-|---2------2---|---2-----2---|
A-|-0------------|-------------|-0------------|-------------|
E-|--------------|-3-----------|--------------|-------------|

   C              G             C              A7
          H                            H
e-|--------------|-------------|--------------|-------------|
B-|-------01-----|-------0-----|-------01-----|-------2-----|
G-|-----0----0---|-----0---0---|-----0----0---|-----0---0---|
D-|---2--------2-|---0-------0-|---2--------2-|---2-------2-|
A-|-3------------|-------------|-3------------|-0-----------|
E-|--------------|-3-----------|--------------|-------------|


Here the Chorus starts:
   dm             G             C      B       am
          H                                          H
e-|-------01-----|-------------|-------------|--------------|
B-|-----3----3---|-------0-----|-------------|-------01-----|
G-|---2--------2-|-----0---0---|-----0-----0-|-----2----2---|
D-|-0------------|---0-------0-|---2-----0---|---2--------2-|
A-|--------------|-------------|-3-----2-----|-0------------|
E-|--------------|-3-----------|-------------|--------------|

   dm             E             am             A7
          H                            H
e-|-------01-----|-------------|--------------|-------------|
B-|-----3----3---|-------0-----|-------01-----|-------2-----|
G-|---2--------2-|-----1---1---|-----2----2---|-----0---0---|
D-|-0------------|---2-------2-|---2--------2-|---2-------2-|
A-|--------------|-------------|-0------------|-0-----------|
E-|--------------|-0-----------|--------------|-------------|


Repeat Chorus with Intro in the End:
   dm             G             C      B       am
          H                                          H
e-|-------01-----|-------------|-------------|--------------|
B-|-----3----3---|-------0-----|-------------|-------01-----|
G-|---2--------2-|-----0---0---|-----0-----0-|-----2----2---|
D-|-0------------|---0-------0-|---2-----0---|---2--------2-|
A-|--------------|-------------|-3-----2-----|-0------------|
E-|--------------|-3-----------|-------------|--------------|

   dm             E             am (same as Intro)
          H                            H
e-|-------01-----|-------------|--------------|-0-----------|
B-|-----3----3---|-------0-----|-------01-----|-------0-----|
G-|---2--------2-|-----1---1---|-----2------2-|-----2-----2-|
D-|-0------------|---2-------2-|---2------2---|---2-----2---|
A-|--------------|-------------|-0------------|-------------|
E-|--------------|-0-----------|--------------|-------------|


After about 3 or 4 times Verse/Chorus the Outro:
                                          -------------------|
e-|-------0-----|-0-----0-----|--------------|-0-------------|
B-|-----3-----3-|-----3-----3-|-------01-----|---------------|
G-|---3-----3---|---3-----3---|-----2------2-|---------------|
D-|-0-----------|-------------|---2------2---|---------------|
A-|-------------|-------------|-0------------|---------------|
E-|-------------|-------------|--------------|---------------|
Related for Dvoe Ne Spyat tab