Song name
# A B C D E F G H I J K L M N O P Q R S T U V W X Y Z

Split Enz - I Got You chords

Highlighted       Show chord diagrams
I Got You,
By Split Enz

 Intro
(palm muted)
E------------------------------------------------------------------------|
B------------------------------------------------------------------------|
G-2--2--2--2--3--3--3--3--2--2--2--2--3--3--3--3--2--2--2--2--3--3--3--3-|
D-0--0--0--0--0--0--0--0--0--0--0--0--0--0--0--0--0--0--0--0--0--0--0--0-|
A------------------------------------------------------------------------|
E------------------------------------------------------------------------|

Verse  x 4

E--------------------------------------------------------------------|
B--------------------------------------------------------------------|
G-2--2--2--2--3--3--3--3---------------------------------------------|
D-0--0--0--0--0--0--0--0--2--2--2--2---------------------------------|
A-------------------------0--0--0--0--5--5--5--5---------------------|
E-------------------------------------3--3--3--3---------------------|

Verse 1

I got you, thats all i   want
I wont forget,thats a whole lot
I don't go out,not now that your in
Sometimes we shout, but thats no problem

Chorus (Open chords)

G       A        Em        Bm    D
I don't know why sometimes i get frightened
        G      A     Em       Bm      A
You can see my eyes tell that i'm not lyin'

Verse 3

Look at you, your a pagent
Your everything that i've imagined
When somethings wrong, i feel uneasy
You show me, tell me your not teasing

Chorus x 2

Bridge  (Single strum of each chord)

G  A  D  G  A  D  G  A  D  F  G

Verse 3

Theres no doubt, that when i'm with you
When i'm without, i stay in my room
Where do you go, I get no answers
Your always out, it gets on my nerves

Chorus
Tap to rate this tab
 
# A B C D E F G H I J K L M N O P Q R S T U V W X Y Z