Song name
# A B C D E F G H I J K L M N O P Q R S T U V W X Y Z

Spm - Real Gangsta tab

-----------------------------------------------------------------
Real Gangsta - S.P.M.
-----------------------------------------------------------------
Tabbed by: Edgar Vargas
Email: BigBiggieIE@yahoo.com

Tuning:EBGDAE

Riff
e|------12--14--12-----------------------------------------------|
B|--12-----------------------------------------------------------|
G|---------------------------------------------------------------|
D|---------------------------------------------------------------|
A|---------------------------------------------------------------|
E|---------------------------------------------------------------|

Chorus
e|---------------------------------------------------------------|
B|---------------------------------------------------------------|
G|-----------------------------------9--7------------------------|
D|--9--10--7--7--7--9--10--7--7--10--------10--7--7--------------|
A|---------------------------------------------------------------|
E|---------------------------------------------------------------|

e|---------------------------------------------------------------|
B|---------------------------------------------------------------|
G|------9--7-----------------------------------------------------|
D|--10--------10--9--9--7--10------------------------------------|
A|---------------------------------------------------------------|
E|---------------------------------------------------------------|
play this twice

Verse
e|---------------------------------------------------------------|
B|---------------------------------------------------------------|
G|---------------------9-----------------------------------------|
D|--9--7--9--7--9--10-----10-------------------------------------|
A|---------------------------------------------------------------|
E|---------------------------------------------------------------|

e|---------------------------------------------------------------|
B|---------------------------------------------------------------|
G|---------------9--7--------------------------------------------|
D|--9--40--9--7--------10----------------------------------------|
A|---------------------------------------------------------------|
E|---------------------------------------------------------------|
play this four times then reapeat from chorus 


| /  slide up
| \  slide down
| h  hammer-on
| p  pull-off
| ~  vibrato
| +  harmonic
| x  Mute note
Tap to rate this tab
# A B C D E F G H I J K L M N O P Q R S T U V W X Y Z