Song name
# A B C D E F G H I J K L M N O P Q R S T U V W X Y Z

Spm - Something About Mary tab

Something About Mary Intro

Standard Tuning



   A
e|----0------------------------------------------------|
B|------1----3------1------0----0h1--------------------|
G|--------2----2------2-------------2------------------|
D|---------------2------2----2--------2----------------| REPEAT
A|--0--------------------------------------------------|
E|-----------------------------------------------------|



     G                   G
e|-----------------------x-----------------------------|
B|-----------------------0-----------------------------|
G|-----------------------0-----------------------------|
D|--------0--------0-----0-----------------------------|
A|-----2--------2--------2-----------------------------|
E|---3--------5---------(3)----------------------------|

This is just the intro
more to come
Tap to rate this tab
 
# A B C D E F G H I J K L M N O P Q R S T U V W X Y Z