Song name
# A B C D E F G H I J K L M N O P Q R S T U V W X Y Z

Spm - Bloody War tab

e----------------------------------|----------------------------------------|
B----------------------------------|----------------------------------------|
G----------------------------------|----------------------------------------|
D----------------------------------|----------------------------------------|
A-------4-5-4-2-4-----2-4-2-0-2-0--|--4-5-4-2-4-----2-4-2-0-2-0-------------|
E-----2-------------0-------------4|2-------------0-------------4-----------|

             That shouldn't be hard if you know the tempo


e----------------------------------|----------------------------------------|
B-------33---343--------43---43----|--33---343--------43---43---------------|
G-----35--------5---3535-------35--|35--------5---3535-------35-------------|
D----------------------------------|----------------------------------------|
A----------------------------------|----------------------------------------|
E----------------------------------|----------------------------------------|

       Its easier if you substain 3rd & 2nd string. (sounds cleaner)
Tap to rate this tab
 
# A B C D E F G H I J K L M N O P Q R S T U V W X Y Z