Song name
# A B C D E F G H I J K L M N O P Q R S T U V W X Y Z

Spm - City Of Dank tab

Well this is my First tab so feel free to make changes to it 
also on standard just move 2 frets up which means 5 would be 3 and so on
   [x4]      [X4]
d-5-8-7-8-----8-7-8-]
A-----------8-------]
F-------------------]
C-------------------]
G-------------------]
D-------------------]

here part of the well what goes on in while he's sings
follow the beat to get it
d--5555-8-7---5--]
A-----------8----]
F----------------]
C----------------]
G----------------]
D----------------]
Tap to rate this tab
 
# A B C D E F G H I J K L M N O P Q R S T U V W X Y Z