Song name
# A B C D E F G H I J K L M N O P Q R S T U V W X Y Z

Spm - 3rd Wish tab

e----0---0---0---0---0---0---0-------------------|
b------------------------------------------------|
g------2---3---0---2-------0---------------------|
d----------------------3-------2-----------------|
a--0---------------------------------------------|
E------------------------------------------------|

you play this part two times

e----0---0---0---0---0---0---0-------------------|
b------------------------------------------------|
g------------------------------------------------|
d------2---3---0---2-------0---------------------|
a--0-------------------3-------2-----------------|
E------------------------------------------------|

and then you play this part two times its played through out the whole song
sorry if its a little off i'm trying to get this by memory with out my guitar
Tap to rate this tab
# A B C D E F G H I J K L M N O P Q R S T U V W X Y Z