Song name
# A B C D E F G H I J K L M N O P Q R S T U V W X Y Z

Spn-x - Wir Wollen Anders Sein tab

-------------------------------------------------------------------------------
	               Wir Wollen Anders Sein - SPN-X
-------------------------------------------------------------------------------
Tabbed by: Nimby
Email: cart.man@gmx.net

Tuning: Standard EADGbe

Intro Guitar 1
2x

e|---------------------------------------------------------6-6---------------|
B|---------8-8-6-6-9-9-9-8-8-6-6---------8-8-6-6-9-9-9-8-8-------------------|
G|---8-8-8-------------------------8-8-8-------------------------------------|
D|---------------------------------------------------------------------------|
A|---------------------------------------------------------------------------|
E|---------------------------------------------------------------------------|

2x
e|---6-6-6-------------------------------------------------------------------|
B|---------9-8------9-9-9-8-6---4h6h8----------------------------------------|
G|-------------8--------------7----------------------------------------------|
D|---------------------------------------------------------------------------|
A|---------------------------------------------------------------------------|
E|---------------------------------------------------------------------------|


Verse 4x
e|---------------------------------------------------------------------------------------|
B|---------------------------------------------------------------------------------------|
G|---8-8-8-8-----------------------------------------------------------------------------|
D|---8-8-8-8-10-10-6-6-------------------------------------------------------------------|
A|---6-6-6-6-10-10-6-6--- Last Time Fade Out --------------------------------------------|
E|------------8--8-4-4-------------------------------------------------------------------|

After 2 Times Guitar 2 Comes in
e|-------------------------------------------------------------------------------|
B|-------------------------------------------------------------------------------|
G|---8---------------------------------------------------------------------------|
D|---x---------------------------------------------------------------------------|
A|---6---------------------------------------------------------------------------|
E|-------------------------------------------------------------------------------|

*Bass Part*

Verse 4x
e|---------------------------------------------------------------------------------------|
B|---------------------------------------------------------------------------------------|
G|---8-8-8-8-----------------------------------------------------------------------------|
D|---8-8-8-8-10-10-6-6-------------------------------------------------------------------|
A|---6-6-6-6-10-10-6-6--- Last Time Fade Out --------------------------------------------|
E|------------8--8-4-4-------------------------------------------------------------------|

Pre-Chorus
e|---------------------------------------------------------------------------------------|
B|---------------------------------------------------------------------------------------|
G|---------------------------------------------------------------------------------------|
D|---8~---7~---8~------------------------------------------------------------------------|
A|---------------------------------------------------------------------------------------|
E|---------------------------------------------------------------------------------------|

Chorus
e|------------------------------------------|
B|------------------------------------------|
G|---8-8-8-8--------------------------------|
D|---8-8-8-8-8-8-8-8-10-10-10-10---6-6-6-6--|
A|---6-6-6-6-8-8-8-8-10-10-10-10---6-6-6-6--|
E|-----------6-6-6-6--8--8--8--8---4-4-4-4--|


Intro Guitar 1
e|---------------------------------------------------------------------------------|
B|---------------------------------------------------------------------------------|
G|-------8-8-8-8-------------------------------------------------------------------|
D|---8---8-8-8-8---10-10---6-6-----------------------------------------------------|
A|---8---6-6-6-6---10-10---6-6-----------------------------------------------------|
E|---6--------------8--8---4-4-----------------------------------------------------|


Intro Guitar 2
e|---------------------------------------------------------6-6---------------|
B|---------8-8-6-6-9-9-9-8-8-6-6---------8-8-6-6-9-9-9-8-8-------------------|
G|---8-8-8-------------------------8-8-8-------------------------------------|
D|---------------------------------------------------------------------------|
A|---------------------------------------------------------------------------|
E|---------------------------------------------------------------------------|

e|---------------------------------------------------------6-6---------------|
B|---------8-8-6-6-9-9-9-8-8-6-6---------8-8-6-6-9-9-9-8-8-------------------|
G|---8-8-8-------------------------8-8-8-------------------------------------|
D|---------------------------------------------------------------------------|
A|---------------------------------------------------------------------------|
E|---------------------------------------------------------------------------|


Verse 4x
e|--------------------------------------------|
B|--------------------------------------------|
G|---8-8-8-8----------------------------------|
D|---8-8-8-8-10-10-6-6--8---------------------|
A|---6-6-6-6-10-10-6-6--8-Last Time Fade Out -|
E|------------8--8-4-4--6---------------------|


Pre-Chorus
e|---------------------------------------------------------------------------------------|
B|---------------------------------------------------------------------------------------|
G|---------------------------------------------------------------------------------------|
D|---8~---7~---8~------------------------------------------------------------------------|
A|---------------------------------------------------------------------------------------|
E|---------------------------------------------------------------------------------------|

Chorus 2x
e|------------------------------------|
B|------------------------------------|
G|---8-8-8-8--------------------------|
D|---8-8-8-8-8-8-8-8-10-10-10-10---6--|
A|---6-6-6-6-8-8-8-8-10-10-10-10---6--|
E|-----------6-6-6-6--8--8--8--8---4--|


Bridge
Guitar1 2x
e|-------------------------------|
B|-------------------------------|
G|---8-8-8-8---------------------|
D|---8-8-8-8-8-8-8--10-10-10-10--|
A|---6-6-6-6-8-8-8--10-10-10-10--|
E|-----------6-6-6---8--8--8--8--|


e|--------------------------|
B|--------------------------|
G|---8-8-8-8----------------|
D|---8-8-8-8-8-8-8-6-6-6-6--|
A|---6-6-6-6-8-8-8-6-6-6-6--|
E|-----------6-6-6-4-4-4-4--|

Guitar2
e|-------------------------------------------------------------------------|
B|-------------------------------------------------------------------------|
G|---8-8-8-8--8-8-8-8--8-8-8-8--8-8-8---8-8-8-8--8-8-8-8--8-8-8---8-8-8-8--|
D|---x-x-x-x--x-x-x-x--x-x-x-x--x-x-x---x-x-x-x--x-x-x-x--x-x-x---x-x-x-x--|
A|---6-6-6-6--6-6-6-6--6-6-6-6--6-6-6---6-6-6-6--6-6-6-6--6-6-6---6-6-6-6--|
E|-------------------------------------------------------------------------|

e|-------------------------------------------------------------|
B|-------------------------------------------------------------|
G|---8-8-8-8-7-7-7-7--8-8-8-8----8-8-8-8-7-7-7-7--8-8-8-8--5~--|
D|---x-x-x-x-x-x-x-x--x-x-x-x----x-x-x-x-x-x-x-x--x-x-x-x--x~--|
A|---6-6-6-6-5-5-5-5--6-6-6-6----6-6-6-6-5-5-5-5--6-6-6-6--3~--|
E|-------------------------------------------------------------|
 Pre-Chorus
e|-----------------------------------------------------------------------------------|
B|-----------------------------------------------------------------------------------|
G|---8~---7~-------------------------------------------------------------------------|
D|---x~---x~-------------------------------------------------------------------------|
A|---6~---5~-------------------------------------------------------------------------|
E|-----------------------------------------------------------------------------------|


Chorus 2x
e|-----------------------------------------|
B|-----------------------------------------|
G|---8-8-8-8---------------------------8~--|
D|---8-8-8-8-8-8-8-8-10-10-10-10---6---x---|
A|---6-6-6-6-8-8-8-8-10-10-10-10---6---6~--|
E|-----------6-6-6-6--8--8--8--8---4-------|
Tap to rate this tab
 
# A B C D E F G H I J K L M N O P Q R S T U V W X Y Z