Song name
# A B C D E F G H I J K L M N O P Q R S T U V W X Y Z

Spn-x - Nur Getrumt tab

tabed by florian j.

Nur geträumt

 1. Strophe:
a        e    F    B   a   C   D   E
 Ich bin so allein.
a         e       F    B    a   e   D   C
 Ich will bei Dir sein.
a         e     F    B   a   C   D   E
 Ich seh' Deine Hand,
a         e        F     B   a   e   D   E
 hab' sie gleich erkannt.
a     e        F             B     a   C   D   E
 Mein Kopf tut weh, mach die Augen zu.
a             e      F          C        D
 Ich lieg' im grünen Gras und erzähl mir was.
 
Solo:
    e                 C                 a               D        h
E:|-0---7---3---5-7-|-0---7---3---5-7-|-0---8---7---5-|-2-------|---2-|
H:|-----------------|-----------------|---------------|-----3-0-|-3---|
G:|-----------------|-----------------|---------------|---------|-----|
D:|-----------------|-----------------|---------------|---------|-----|
A:|-----------------|-----------------|---------------|---------|-----|
E:|-----------------|-----------------|---------------|---------|-----|

    e                 C                 a                   C   D
E:|-0---7---3---5-7-|-0---7---3---5-7-|-0---8---7---5---2-|-------|
H:|-----------------|-----------------|-------------------|-------|
G:|-----------------|-----------------|-------------------|-5---7-|
D:|-----------------|-----------------|-------------------|-5---7-|
A:|-----------------|-----------------|-------------------|-3---5-|
E:|-----------------|-----------------|-------------------|-------|

 Refrain:
G                         C                    D             G
 Ich hab' heute nichts versäumt, denn ich hab' nur von Dir geträumt.
G                                C                    D           G
 Wir hab'n uns lang nicht mehr geseh'n, ich werd' mal zu dir rübergeh'n.
G                      C                  D              G
 Alles, was ich an Dir mag, ich mein' das so, wie ich es sag'.
G                 C                  D                      A
 Ich bin total verwirrt, ich werd verrückt, wenn's heut' passiert.
 
 2. Strophe:
a        e          F    B   a   C   D   E
 Mir ist schon ganz heiß.
a         e        F   B   a   e    D   C
 Ich geh' auf Dich zu.
a      e      F      B     a   C   D   E
 Deine Blicke ärgern mich,
a       e     F      C     D
 denken immer nur an Dich.
 
 Solo
 
 Refrain:
 Ich hab' heute nichts versäumt, denn ich hab' nur von Dir geträumt.
 Wir hab'n uns lang nicht mehr geseh'n, ich werd' mal zu dir rübergeh'n.
 Alles, was ich an Dir mag, ich mein' das so, wie ich es sag'.
G                 C                  D                      A      C   D
 Ich bin total verwirrt, ich werd verrückt, wenn's heut' passiert.
G                         C
 Ich hab' heute nichts versäumt...
Tap to rate this tab
 
# A B C D E F G H I J K L M N O P Q R S T U V W X Y Z