Song name
# A B C D E F G H I J K L M N O P Q R S T U V W X Y Z

Spocks Beard - June tab

-------------------------------------------------------------------------------
			     JUNE - Spock's Beard
-------------------------------------------------------------------------------
Tabbed by: Jordan
Email: wuzzup_3000@yahoo.ca

Spock's Beard official website: http://www.spocksbeard.com


Tuning: Standard (EADGBE)

This is a lifechanging song. I'm not going to cover the entire thing, I'll just give you
of the riffs you need to know. The timing is a little more difficult to put into a tab
you'll have to listen to the song to get it down. Also, the song sounds incredible on a 12-string.

e|---------------------------------------------------------------------------|
B|----------------------------------------------7----------------------------|
G|-----6--6-----6-6-6--6--6---------6----6---6--6----------------------------|
D|-----6--6-----6-6-6--6--6---x3----6----6---6--6----------------------------|
A|-----4--4-----4-4-4--4--4---------4----4---4--4----------------------------|
E|---------------------------------------------------------------------------|

         Again, you can figure out the timing by listening to the song, these are just
chords...
e|----------------------------------2-----------------------------------------|
B|-----6--------------4-------------2----------------6------6--6--6--6--------|
G|-----6--------------4-------------3----------------6------6--6--6--6--------|
D|-----6--------------4-------------4----------------6------8--6--4--6--------|
A|-----4--------------2-------------4----------------4------4--4--4--4--------|
E|----------------------------------------------------------------------------|

That's really all there is to the song, repeat those chords and riffs and you basically
the song down. I'll get more in depth with it some other time. Feel free to contact me
any questions or comments.

==============================================================================
Tap to rate this tab
 
# A B C D E F G H I J K L M N O P Q R S T U V W X Y Z