Song name
# A B C D E F G H I J K L M N O P Q R S T U V W X Y Z

Spoken - Brought To Life tab

SONG: BROUGHT TO LIFE
ARTIST: SPOKEN
ALBUM: SPOKEN

TUNING: C# (C# G# C# F# A# D#)

THIS IS A FUN SONG TO PLAY, AND ITS PRETTY EASY TOO. 
THERE'S NOT MANY PARTS, AND NOT TOO MUCH COMPLICATED RYTHM.


INTRO/VERSE
D#[---------------------------]
A#[o-------------------------o]
F#[-----------------------7---]
C#[---9----9----9---9--7--7---]
G#[o--9----9----9---9--7--5--o]
C#[---9----9----9---9--7------]

cHORUS
D#[-----------------------]
A#[o---------------------o]
F#[---7---------7---------]
C#[---7--4--2---7--7--9---]
G#[o--5--4--2---5--7--9--o]
C#[---5--4--2---5--7--9---]

BRIDGE/OUTRO
D#[-----------------------------]
A#[o---------------------------o]
F#[-----------------------------]
C#[---9--7-9----9--7-9---2--4---]
G#[o--9--7-9----9--7-9---2--4--o]
C#[---9--7-9----9--7-9---2--4---]

CHORUS

BRIDGE/OUTRO
Tap to rate this tab
# A B C D E F G H I J K L M N O P Q R S T U V W X Y Z