Song name
# A B C D E F G H I J K L M N O P Q R S T U V W X Y Z

Spoken - Across These Waters tab

Help us improve GuitareTab! Take a short survey!
/-Slide
.-Palm Mute
*-Natural harmonix

Intro 2X
|----------------------------------|
|----------------------------------|
|9/-------9/-------9/--------(10--)|
|7/-0-3-3/7/-0-3-3/7/-0-3-3/-(8---)|
|7/-0-3-3/7/-0-3-3/7/-0-3-3/-(8---)|
|7/-0-3-3/7/-0-3-3/7/-0-3-3/-(8-X8)|

Second Time End On
|-------------|
|-------------|
|-------------|
|6-6-6-6-6-6-6|
|6-6-6-6-6-6-6|
|6-6-6-6-6-6-6|

Verse 4X
|----------------------------------------|
|----------------------------------------|
|------------------------666-666-666-666-|
|0-3-3-3-3-3-3-3-3-3-3-3-444-444-444-444-|
|0-3-3-3-3-3-3-3-3-3-3-3-444-444-444-444-|
|0-3-3-3-3-3-3-3-3-3-3-3-444-444-444-444-|
       .       .       .                 

Chorus
|----------------------------------------------------------|
|----------------------------------------------------------|
|-----------------[12------/-12--------12--------(10--)]---|
|666-666-666-666/-[10-0-6-6/-10-0-6-6/-10-0-6-6/-(8---)]---|
|666-666-666-666/-[10-0-6-6/-10-0-6-6/-10-0-6-6/-(8---)]---|
|666-666-666-666/-[10-0-6-6/-10-0-6-6/-10-0-6-6/-(8-X8)-X3]|
                          *         *         *
 Third Time          
|---------------------------------------------------------|
|---------------------------------------------------------|
|--12------/-12--------12--------(10--)-------------------|
|/-10-0-6-6/-10-0-6-6/-10-0-6-6/-(8---)--3--3--3-333-3--3-|
|/-10-0-6-6/-10-0-6-6/-10-0-6-6/-(8---)--3--3--3-333-3--3-|
|/-10-0-6-6/-10-0-6-6/-10-0-6-6/-(8-X8)--3--3--3-333-3--3-|
          *         *         *                  ***

Verse 4X
|----------------------------------------|
|----------------------------------------|
|------------------------666-666-666-666-|
|0-3-3-3-3-3-3-3-3-3-3-3-444-444-444-444-|
|0-3-3-3-3-3-3-3-3-3-3-3-444-444-444-444-|
|0-3-3-3-3-3-3-3-3-3-3-3-444-444-444-444-|

Chorus
|----------------------------------------------------------|
|----------------------------------------------------------|
|-----------------[12------/-12--------12--------(10--)]---|
|666-666-666-666/-[10-0-6-6/-10-0-6-6/-10-0-6-6/-(8---)]---|
|666-666-666-666/-[10-0-6-6/-10-0-6-6/-10-0-6-6/-(8---)]---|
|666-666-666-666/-[10-0-6-6/-10-0-6-6/-10-0-6-6/-(8-X8)-X3]|
                          *         *         *
 Third Time          
|---------------------------------------------------------|
|---------------------------------------------------------|
|--12------/-12--------12--------(10--)-------------------|
|/-10-0-6-6/-10-0-6-6/-10-0-6-6/-(8---)--8////////////////|
|/-10-0-6-6/-10-0-6-6/-10-0-6-6/-(8---)--8////////////////|
|/-10-0-6-6/-10-0-6-6/-10-0-6-6/-(8-X8)--8////////////////|
          *         *         *           ****************

Interlude (Less Distortion) 2X
|---------------------------------|
|---------------------------------|
|---------------------------------|
|6-6-6--8-8-8--6-6-6--8-8-8--6-6-6|
|6-6-6--6-6-6--6-6-6--6-6-6--6-6-6|
|6-6-6--6-6-6--6-6-6--6-6-6--6-6-6|  

Outro (Distortion)8X


|---------------------------------|
|---------------------------------|
|---------------------------------|
|6-6-6--8-8-8--6-6-6--10-10-10-6-6|
|6-6-6--6-6-6--6-6-6--6--6--6--6-6|
|6-6-6--6-6-6--6-6-6--6--6--6--6-6|  
                               . 
Related for Across These Waters tab