Song name
# A B C D E F G H I J K L M N O P Q R S T U V W X Y Z

Spoken - Promise tab

Help us improve GuitareTab! Take a short survey!
This is the right way to play this song.

E-------------------------------------------|
B-------------------------------------------|
G-------------------------------------------|(3x)
D-----------4--------------4----------------|
A-----6-4-6---6------6-4-6---6--------------|
D--------------------------------999--9-99--|
  pm.......................................

E-------------------------------------------------------|
B-------------------------------------------------------|
G---------------------------------11-11-11--11-11-11----|(1x)
D-----------4-------------4-------9--9--9---11-11-11----|
A-----6-4-6---6-----6-4-6---6-----9--9--9---9--9--9-----|
D---------------------------------9--9--9---9--9--9-----|
  pm...........................


Verse 1

Same as last time of intro


Chorus

E--------------------------|
B--------------------------|
G---666--888--11-11-11-----|
D---666--888--11-11-11-----|
A---444--666--9--9--9------|
D-------------9--9--9------|

Verse 2

Same as verse 1

Chorus

Bridge

E------------------------------------------------------|
B------------------------------------------------------|
G--------444-------444--------444444----4---4----4444--|
D---111--444--111--444--1111--444444--1-4-1-4-1--4444--|
A---111--222--111--222--1111--222222--1-2-1-2-1--2222--|
D---111--222--111--222--1111--222222--1-2-1-2-1--2222--|
                        pm..          pm.......

Listen to song for the rest of bridge, its repeatative.


Chorus


back to intro fade out
 
Related for Promise tab