Guitaretab - guitar tabs
Song name
# A B C D E F G H I J K L M N O P Q R S T U V W X Y Z

Spoken - September tab

this is from their new album Last chance to breathe.
tune down one whole step


        Intro: repeat the 7,7,9 24 times until the chords in the intro start
       ----------------------------------------------------------|
       ----------------------2-2-2-2-2---------------------------|
       ----------------------2-2-2-2-2-------------------9-9-9-9-|
       ----9-------2-2-2-2-2-2-2 2-2-2-5-5-5-5-5-5-5-5-----------|
       --77--------2-2-2-2-2-----------3-3-3-3-3-3-3-3---7-7-7-7-|
       ----------------------------------------------------------|


       ----------------------------------------------------------|
       ----------------------------------------------------------|
       --11-11-11-11--12-12-12-12-12-----------------------------|
       ---9--9--9--9--10-10-10-10-10-----------------------------|
       ----------------------------------------------------------|
       ----------------------------------------------------------|

        Verse: there are 2 guitars. one is playing the intro the other is playing this:
[ Tab from: http://www.guitaretab.com/s/spoken/139181.html ]
       ----------------------------------------------------------|
       --------------------2-2-2-2-------------------------------|
       --------------------2-2-2-2-------------------------------|Repeat 4x
       ---2-2-2-2-2-2-2-2--2-2-2-2--5-5-5-5----------------------|
       ---2-2-2-2-2-2-2-2-----------3-3-3-3----------------------|
       ----------------------------------------------------------|

        Chorus

       ----------------------------------------------------------|
       ----------------------------------------------------------|
       --9-9-9-9--11-11-11-11--12-12-12-12-12-12-12-12-----------|Repeat 4x
       ----------------------------------------------------------|
       --7-7-7-7---9--9--9--9--10-10-10-10-10-10-10-10-----------|
       ----------------------------------------------------------|

        Bridge: there are some upstrokes in this but its easy enough to figure out
       ----------------------------------------------------------|
       --------------------------------10-10-10-10-10-10-10------|
       ---------------------------------9--9--9--9--9--9--9------|
       --7-7-7-7-7-7-7-7-7-7-7-7-7-7-7--7--7--7--7--7--7--7------|
       --5-5-5-5-5-5-5-5-5-5-5-5-5-5-5---------------------------|
       ----------------------------------------------------------|

       ----------------------------------------------------------|
       ---13--13--13--13--13--13--13-----------------------------|
       ---12--12--12--12--12--12--12-----------------------------|
       ---10--10--10--10--10--10--10-----------------------------|
       ----------------------------------------------------------|
       ----------------------------------------------------------|

       back to intro riff
         ENJOY :)
Related for September tab
September chords by Spoken