Guitaretab - guitar tabs
Song name
# A B C D E F G H I J K L M N O P Q R S T U V W X Y Z

Spoken - Forevermore tab

Artist: Spoken
Title: Forevermore
Album: Echoes of the Spirit Still Dwell
Tuning: Dropped-D
Tabbed by: Dominic Worrell, zdworrel@tiu.edu - corrections and comments welcome
Thanks to: Jordan Dahl, who tabbed this song on here before and who i took a few ideas from

Intro:
---------------------------------------------------------11/-|
-------------------------------------------------------------|
----------------------------1--------------------------------|
-1--1-1--3h4-3--1--1-1--3h4-----1--1-1--3h4-3--1--1-1-1------|
-1--1-1---------1--1-1----------1--1-1---------1--1-1-1------|
-1--1-1---------1--1-1----------1--1-1---------1--1-1-1------|

---------------------------------------------------------------------------|
---------------------------------------------------------------------------|
----------------------------1----------------------------1b----------------|
-1--1-1--3h4-3--1--1-1--3h4-----1--1-1--3h4-3--1--1-1-1------1-1-1--3h4-3-|
-1--1-1---------1--1-1----------1--1-1---------1--1-1-1------1-1-1--------|
-1--1-1---------1--1-1----------1--1-1---------1--1-1-1------1-1-1--------|

----------------------------------------------------------|
----------------------------------------------------------|
----------------------------------------------------------|
--1-1-1-1-1-1---1-1-1--2-2-2-1--1-1-1--1-1-1-------1h2-1-|
--1-1-1-------4--1-1-1-----------1-1-1--------4-----------|
--1-1-1----------1-1-1-----------1-1-1--------------------|

----------------------------------------------------------|
----------------------------------------------------------|
----------------------------------------------------------|
--1-1-1-1-1-1---1-1-1--2-2-2-1--1-1-1--1-1-1-------1h2-1-|
--1-1-1-------4--1-1-1-----------1-1-1--------4-----------|
--1-1-1----------1-1-1-----------1-1-1--------------------|


Verse:
------------------------------------------------|
------------------------------------------------|
-8\---------------------------------------------|
-8\---1-1--2-2-2-1--1-1-1--1-1-1-----1h2-1------|
-6\---1-1-----------1-1-1--------4--------------|
------1-1-----------1-1-1-----------------------|
[ Tab from: http://www.guitaretab.com/s/spoken/28560.html ]
----------------------------------------------------------|
----------------------------------------------------------|
----------------------------------------------------------|
--1-1-1-1-1-1---1-1-1--2-2-2-1--1-1-1--1-1-1-------1h2-1-|
--1-1-1-------4--1-1-1-----------1-1-1--------4-----------|
--1-1-1----------1-1-1-----------1-1-1--------------------|

---------------------------------------------------------------|
---------------------------------------------------------------|
-8\------------------------------------------------------------|
-8\---1-1--2-2-2-1--1-1-1--1-1-1-----1h2-1---------------------|
-6\---1-1-----------1-1-1--------4-----------------------------|
------1-1-----------1-1-1--------------------------------------|
---------------------------------------------------------------|
---------------------------------------------------------------|
---------------------------------------------------------------|
--1-1-1-1-1-1---1-1-1--2-2-2-1--1-1-1--1-------1-------1------|
--1-1-1-------4--1-1-1-----------1-1------4-4-4---4-4-4---4-4--|
--1-1-1----------1-1-1-----------1-1---------------------------|

Chorus:
------------------------------------|
------------------------------------|
-------------------------4--6-------|
-1-1-1-1----1-1-1-1-1----4--6----6--|
-1-1-1-1----1-1-1-1-1----2--4----6--|
-1-1-1-1----1-1-1-1-1------------6--|

chorus last time:
------------------------------------------------|
------------------------------------------------|
-----------------------4--6-----------------6---|
-1-1-1-1----1-1-1-1-1--4--6-------6---------6---|
-1-1-1-1----1-1-1-1-1--2--4-------6---------4---|
-1-1-1-1----1-1-1-1-1-------------6---------4---|


Bridge:
---------------------------------------------------------------|
---------------------------------------------------------------|
---------------------------------------------------------------|
-1~~~------------8-8-8------------6-6----------8-8-8-----------|
-1~~~----6-6-6-6---------8\-4-4-------6-6-6-6---------8\-4-4-4-|
-1~~~-----------------8----------------------------8-----------|


Bridge 2 (screaming section):
----------------|
----------------|
----------------|
---8----6----4--|
-6-8--4-6--2-4--|
---8----6----4--|


Outro:
-----------------------------------------------|
-----------------------------------------------|
-----------------------------------------------|
-1-4--1-3---1-4--1-3---1-4--1-3---1-1-4--1-4-1-|
-1-4--1-3---1-4--1-3---1-4--1-3---1-1-4--1-4-1-|
-1-4--1-3---1-4--1-3---1-4--1-3---1-1-4--1-4-1-|
Related for Forevermore tab