Song name
# A B C D E F G H I J K L M N O P Q R S T U V W X Y Z

Spoken - Breath In The Fog tab

Spoken - Breath in the Fog
Tabbed by:nick schuurman
Email:

Tuning: Drop D, 1/2 step down

Intro
e|---------------------------------------------------------------------------|
B|---7-7-5-5-3-3-5-5---------------------------------------------------------|
G|---6-6-4-4-2-2-4-4---------------------------------------------------------|
D|---4-4-2-2-0-0-2-2---------------------------------------------------------|
A|---4-4-2-2-0-0-2-2---------------------------------------------------------|
D|---4-4-2-2-0-0-2-2---------------------------------------------------------|

Verse
e|---------------------------------------------------------------------------|
B|----------7---------7---------3---------5----------------------------------|
G|----------6---------6---------2---------4----------------------------------|
D|---4444-4-4--4444-4-4--0000-0-0--2222-2-2----------------------------------|
A|---4444-4----4444-4----0000-0----2222-2-----repeat-------------------------|
D|---4444-4----4444-4----0000-0----2222-2------------------------------------|

Chorus
e|---------------------------------------------------------------------------|
B|---77--3/5--3/5--3-5-------------------------------------------------------|
G|---66--2/4--2/4--2-4-------------------------------------------------------|
D|---44------------0-2-------------------------------------------------------|
A|---44------------0-2-------------------------------------------------------|
D|---44------------0-2-------------------------------------------------------|

Bridge
e|---------------------------------------------------------------------------|
B|---7--3--5-----7-------3------5--------------------------------------------|
G|---6--2--4-------6-------2------4------------------------------------------|
D|---4--0--2---4-------0------2----------------------------------------------|
A|---4--0--2---4-------0------2----------------------------------------------|
D|---4--0--2---4-------0------2----------------------------------------------|

End
e|---------------------------------------------------------------------------|
B|---10--9--9/10-9--7--------------------------------------------------------|
G|------------------6--------------------------------------------------------|
D|------------------4--------------------------------------------------------|
A|------------------4--------------------------------------------------------|
D|------------------4--------------------------------------------------------|
Tap to rate this tab
 
# A B C D E F G H I J K L M N O P Q R S T U V W X Y Z