Song name
# A B C D E F G H I J K L M N O P Q R S T U V W X Y Z

Spoken - Wind In My Sails tab

Tunning: Down half Step


Intro:
       --------12--------------10-12-------|
       -----------12-----------------------|
       ---9-9-9--9--9-10-12-9-9--9---------|Repeat 3x
       ------------------------------------|
       ------------------------------------|
       ------------------------------------|

(same as chorus)
       -----------------------------------------------------------|
       --------8-8-8----------------------8-8-8-------------------|
       --------9-9-9----------------------9-9-9-------------------|
       -0-0-0--9-9-9--7-7-7--5-5-5-0-0-0--9-9-9--7-7-7--5-5-5-----|
       -0-0-0--7-7-7--5-5-5--3-3-3-0-0-0--7-7-7--5-5-5--3-3-3-----|
       -0-0-0----------------------0-0-0--------------------------|


       -----------------------------------------------------------|
       --------8-8-8----------------------------------------------|
       --------9-9-9----------------------------------------------|
       -0-0-0--9-9-9--7-7-7--5-5-5--5-5-5--5-5-5-5-5--55-5--------|
       -0-0-0--7-7-7--5-5-5--3-3-3--3-3-3--3-3-3-3-3--33-3--------|
       -0-0-0-----------------------------------------------------|

Verse:
       -----------------------------------------------------------|
       -----------------------------------------------------------|
       -----------------------------------------------------------|
       2-2-2-2-2-2-2-2-2-2-2--7--5--------------------------------|
       2-2-2-2-2-2-2-2-2-2-2--5--3--------------------------------|
       -----------------------------------------------------------|
Tap to rate this tab
# A B C D E F G H I J K L M N O P Q R S T U V W X Y Z