Song name
# A B C D E F G H I J K L M N O P Q R S T U V W X Y Z

Sponge Cola - Gemini Acoustic tab

I really like this song so much so I decided to tab this song
well, hope you like it :]

www.friendster.com/kol911

[CHORUS]              [VERSE 2]
G - 320033           FM - 244xxx
G/F# - 200033        G - 355xxx
Em7 - 022033         C9 - 032033
C9 - 032033          D - xx0232
D - xx0232
G* - 300033


[INTRO]

   C9

e|----------------------------------------------|
B|--------3----------3----------3---------3-----|
G|-----------0----------0----------0---------0--|
D|-----2----------2----------2---------2--------|
A|---3----------3----------3---------3----------|
E|----------------------------------------------|


[VERSE 1]

        C9                G/F#
  come a little closer     flicker in flight
e|----------------------------------------------|
B|--------3----------3----------3---------3-----|
G|-----------0----------0----------0---------0--|
D|-----2----------2-----------------------------|
A|---3----------3------------0---------0--------|
E|-------------------------2---------3----------|

        C9
e|----------------------------------------------|
B|--------3----------3----------3---------3-----|
G|-----------0----------0----------0---------0--|
D|-----2----------2----------2---------2--------|
A|---3----------3----------3---------3----------|
E|----------------------------------------------|

      C9
    we'll have about an inch's space
e|-------------------------|
B|--------3----------3-----|
G|-----------0----------0--|
D|-----2----------2--------|
A|---3----------3----------|
E|-------------------------|

  G/F#      G    G/F#    G
  but  i'm here   i     can
e|----------------------------------------------|
B|--------3----------3----------3---------3-----|
G|-----------0----------0----------0---------0--|
D|----------------------------------------------|
A|-----0----------0----------0---------0--------|
E|---2----------3----------2---------3----------|


   G/F#   G     G/F#   G
  breathe in   what   you
e|----------------------------------------------|
B|--------3----------3----------3---------3-----|
G|-----------0----------0----------0---------0--|
D|----------------------------------------------|
A|-----0----------0-----------0---------0-------|
E|---2----------3-----------2---------3---------|

       C9                           D
   breathe   out
e|------------------------------------------2----|
B|----------3------------3--------------3---3----|
G|-------------0------------0--------2------2----|
D|------2------------2------------0---------0----|
A|----3------------3-----------------------------|
E|-----------------------------------------------|


[CHORUS]

                G
let me know if i'm doing this right

               G/F#
let me know if my grip's too tight

               Em7                    C9
let me know if i can stay all of my life

                 G
let me know if dreams can come true

                G/F#
let me know if this one's your's too

        Em7      C9
coz' i see it ohh

     G/F#  G*    Em7     C9
and i feel it right here

     G/F#  G*    Em7     C9
and i feel you right here


[VERSE 2]
Pwede dito plucking or strumming it doesn't matter

    C9
e|----------------------------------|
B|--------3----------3--------------|
G|-----------0----------0-----------|
D|-----2----------2-----------------|
A|---3----------3-------------------|
E|----------------------------------|

      C9
  the vacuous night
e|----------------------------------|
B|--------3----------3--------------|
G|-----------0----------0-----------|
D|-----2----------2-----------------|
A|---3----------3-------------------|
E|----------------------------------|

       FM            G
steps aside to give meaning

      FM       G
to gemini's dreaming

    C9
e|----------------------------------|
B|--------3----------3--------------|
G|-----------0----------0-----------|
D|-----2----------2-----------------|
A|---3----------3-------------------|
E|----------------------------------|

     C9
the moon on its back
e|----------------------------------|
B|--------3----------3--------------|
G|-----------0----------0-----------|
D|-----2----------2-----------------|
A|---3----------3-------------------|
E|----------------------------------|

           FM     G
and the seemingly

FM     G
veiled room's

FM   G      C9       D
lit by the same star.


[CHORUS]

                G
let me know if i'm doing this right

               G/F#
let me know if my grip's too tight

               Em7                    C9
let me know if i can stay all of my life

                 G
let me know if dreams can come true

                G/F#
let me know if this one's your's too

        Em7      C9
coz' i see it ohh

     G/F#  G*    Em7     C9
and i feel it right here

     G/F#  G*    Em7       C9
and i feel you right here ohhhh


G , G/F# , Em7 , C9
Tap to rate this tab
 
# A B C D E F G H I J K L M N O P Q R S T U V W X Y Z