Song name
# A B C D E F G H I J K L M N O P Q R S T U V W X Y Z

Sponge Cola - Dragonfly tab

Di ako masyado marunong mag gawa ng tabs, magbasa lang...
sabayan nu na lng po ung kanta para makuha nyo!! i think this is more
accurate!!! kung may questions e-mail nyo ko, dinx1o@yahoo.com 
eat plenty of rice and green leafy vegetables ok??!!!
ORKESTRA NI TALBOT rocks!!!


Dragonfly Solo:
   G#m             B
e-----------11-12-14-12-11---------------|
B--------12----------------12h14-12------|
G--09h11---------------------------11----|
D----------------------------------------|
A----------------------------------------|
E----------------------------------------|
   E		    	       |	mabilis sa part n to   	G#m
e-------------------------09---|------------------------------------|
B-------------------------09---|12-11-09----------------------------|
G-------08-08h09-11---------11-|--------11-09-08-09-08---08---------|
D--09h11-------------09-11--11-|-----------------------11--11-09----|
A------------------------------|--------------------------------11--|
E------------------------------|------------------------------------|

               B           16x 8x 8x	 ung kasunod pede nang laruin!
e-------------------------------------16-------|
B--------------------------10--12-14-----------|
G--------------------------09--11-11-----------|			  
D--06-07-06h07-09-07-06------------------------|
A-----------------------09---------------------|
E----------------------------------------------|
Tap to rate this tab
# A B C D E F G H I J K L M N O P Q R S T U V W X Y Z