Song name
# A B C D E F G H I J K L M N O P Q R S T U V W X Y Z

Sponge Cola - Closure tab

sa tingin ko tama toh.. kasi nagagamit ko na toh tuing tumutugtog kami..



stndard lang ung tuning....

chords used: A, C#m

intro:
      A       A      C#m     C#m
|-----5-------5-------4-------4-------|
|-----5-------5-------5-------5-------|
|-----6-------6-------6-------6-------| 2x
|-----7-------7-------6-------6-------|
|-----7-------7-------4-------4-------|
|-----5-------5-------4-------4-------|


verse:
      A       A      C#m     C#m
|-----5-------5-------4-------4-------|
|-----5-------5-------5-------5-------|
|-----6-------6-------6-------6-------| 2x
|-----7-------7-------6-------6-------|
|-----7-------7-------4-------4-------|
|-----5-------5-------4-------4-------|


i aplly nio lang sa whole song ung A pati C#m....

end nio sa C#m

un lang...

^_^

peace out!!

..V.
Tap to rate this tab
# A B C D E F G H I J K L M N O P Q R S T U V W X Y Z