Song name
# A B C D E F G H I J K L M N O P Q R S T U V W X Y Z

Sponge Cola - Gemini tab

Elow poh!!!...
ito poh ung version ko0 ng GeMiNi By spongecola!!!....
Sna poh mgustuhan nio ito!!!
Add me poh sa Friendster kurai_008@yahoo.com.ph
tnx!!!

BAGO NIYO POH TUGTUGIN PAKINGGAN NIYO POH MUNA UNG GeMiNi NG BUO...
note:ito poh ung version ng GeMiNi ay iba poh eung dun sa MTV tlga nla...
Ksi poh magkaiba yung outro ng dalawa...
Salamat pla kay ONEC tinulungan niya aqoe pra mkumpleto ko toh!!

GTR 1- Clean Tune-Armo
GTR 2- Distorted -Yael

INTRO
e------------------3-------------|
B------3-------------3-----------|
G--------0-------------0---------|  2x
D----2-----2-----2---------------|
A--3-----------3-----------------|
E--------------------------------|

VERSE 1 (Puro GTR-1 lng poh dito)
e-------------------------------|
B------3---------------3--------|
G--------0----------------0-----|
D----2-----2--------2-------2---|
A--3-------------3--------------|
E-------------------------------|
  come a little closer

e--------------------------------|
B------3-------------3-----------|
G--------0--------------0--------|
D--------------------------------|
A---0-------------0--------------|
E-2-------------3----------------|
  Fli----------------------------|cker

e------------------3-------------|
B------3-------------3-----------|
G--------0-------------0---------|  2x
D----2-----2-----2---------------|
A--3-----------3-----------------|
E--------------------------------|
  in flight.....

e-------------------------------|
B------3---------------3--------|
G--------0----------------0-----|
D----2-----2--------2-------2---|
A--3-------------3--------------|
E-------------------------------|
 we'll have about an inch space but

e-------------------------------|
B------3-------------3----------|
G--------0--------------0-------|
D-------------------------------|
A---0-------------0-------------|
E-2-------------3---------------|
  I'm          Here

e-------------------------------|
B------3-------------3----------|
G--------0--------------0-------|
D-------------------------------|
A---0-------------0-------------|
E-2-------------3---------------|
  I             Can

e-------------------------------|
B------3-------------3----------|
G--------0--------------0-------|
D-------------------------------|
A---0-------------0-------------|
E-2-------------3---------------|
  Breathe       In

e-------------------------------|
B------3-------------3----------|
G--------0--------------0-------|
D-------------------------------|
A---0-------------0-------------|
E-2-------------3---------------|
  What         you...    Breathe

e-------------------------------|
B------3----------3-------------|
G--------0----------0-----------|
D----2-----2----0------2--------|
A--0----------2-----------------|
E-------------------------------|
  out......

(Continuation ng Pre-Chorus)
e-------------------2-----------|
B-------3-----------3-----------|
G---------0---------2-----------|
D----0-------2------0-----------|
A--3----------------------------|
E-------------------------------|


CHORUS (wala pa din ung GTR-2)
e---------------------------3---|
B---------------------------3---|
G----------------------0--------|
D-------------------0-----------|
A----------------2--------------|
E--------------3----------------|
Let Me Know if im doing this right

e---------------------------2---|
B-----------------------0---3---|
G-------------------------------|
D-------------------0-----------|
A----------------0--------------|
E--------------2----------------|
Let me Know if my grip's too tight

e----------------------3--------|
B--------------------3-3--------|
G------------------0------------|
D----------------2--------------|
A--------------2----------------|
E-------------------------------|
Let me know if i can stay all of

e------------3------------------|
B---------3--3------------------|
G------0------------------------|
D----2--------------------------|
A--3----------------------------|
E-------------------------------|
My Life.....

e---------------------------3---|
B---------------------------3---|
G----------------------0--------|
D-------------------0-----------|
A----------------2--------------|
E--------------3----------------|
Let Me Know if Dreams can come true

e---------------------------2---|
B-----------------------0---3---|
G-------------------------------|
D-------------------0-----------|
A----------------0--------------|
E--------------2----------------|
Let me Know if this one's yours too

e----------------------3--------|
B--------------------3-3--------|
G------------------0------------|
D----------------2--------------|
A--------------2----------------|
E-------------------------------|
Cause I see it....

e------------3------------------|
B---------3--3------------------|
G------0------------------------|
D----2--------------------------|
A--3----------------------------|
E-------------------------------|
hooh........


e-------------------------------|
B----------1----------1---------|
G------------0----------0-------|
D--------2-----2----0-----0-----|
A------0----------2-------------|
E-------------------------------|
and i feel..............

e-------------------2-----------|
B------1---------------3--------|
G--------0--------2------2------|
D---0------0----0---------------|
A-3-----------------------------|
E-------------------------------|
 it.............

e-----------------------------------------------------|
B-----0---------0----------0----------0---------------|
G-------0---------0----------0----------0-------------|
D---------2---------0----------0----------0-----------|
A---2---------2----------2----------2-----------------|
E-0---------2----------3----------2-------------------|
 right here..........he....re..

e-------------------------------|
B----------1----------1---------|
G------------0----------0-------|
D--------2-----2----0-----0-----|
A------0----------2-------------|
E-------------------------------|
and i feel..............

e-------------------------------|
B------1-----------1------------|
G--------0-----------0----------|
D---0------0-----0-----0--------|
A-3------------3----------------|
E-------------------------------|
you.....

e--------2-2h3-2---3--3--2------|
B------3---------3--------------|
G----2--------------------------|
D--0----------------------------|
A-------------------------------|
E-------------------------------|
right here....

VERSE 2
GTR 1
e------------3------------------|
B--3--3--3---3------------------|
G--0--0--0---0------------------|
D-------------------------------|
A------------3------------------|
E--3--3--3----------------------|
               the vacuos nights steps
GTR 1
e-------------------------------|
B-------------------------------|
G-------------------------------|
D-444---------5s7--5------------|
A-444---------5s7--5------------|
E-222---------3s5--3------------|
GTR 2
e-------------------------------|
B-------------------------------|
G-------------------------------|
D-444---------5x--555-----------|
A-444---------5x--555-----------|
E-222---------3x--333-----------|
aside to give meaning to

e-------------------------------|
B-------------------------------|
G-------------------------------|
D-444---------5s7--5------------|
A-444---------5s7--5------------|
E-222---------3s5--3------------|
GTR 2
e-------------------------------|
B-------------------------------|
G-------------------------------|
D-444---------5x--555-----------|
A-444---------5x--555-----------|
E-222---------3x--333-----------|
  gemini's    dreaming

GTR 1
e------------------3-------------|
B------3-------------3-----------|
G--------0-------------0---------|
D----2-----2-----2---------------|
A--3-----------3-----------------|
E--------------------------------|

e------------------3-------------|
B------3-------------3-----------|
G--------0-------------0---------|
D----2-----2-----2---------------|
A--3-----------3-----------------|
E--------------------------------|

GTR 2 Riff
e-------------7~----------------|
B-------------5~----------------|
G-------------6~----------------|
D-------------------------------|
A-------------------------------|
E-------------------------------|
             the moon on it's back and the

GTR 1
e-------------------------------|
B-------------------------------|
G-------------------------------|
D-444---------5s7--5------------|
A-444---------5s7--5------------|
E-222---------3s5--3------------|
GTR 2
e--------------------------------|
B--------------------------------|
G--------------------------------|
D-444---------5x--555------------|
A-444---------5x--555------------|
E-222---------3x--333------------|
 see-----------------------------|ming

GTR 1
e-------------------------------|
B-------------------------------|
G-------------------------------|
D-444---------5s7--5------------|
A-444---------5s7--5------------|
E-222---------3s5--3------------|
GTR 2
e-------------------------------|
B-------------------------------|
G-------------------------------|
D-444---------5x--555-----------|
A-444---------5x--555-----------|
E-222---------3x--333-----------|
--ly          veiled

GTR 1
e-------------------------------|
B-------------------------------|
G-------------------------------|
D-444---------5s7--5------------|
A-444---------5s7--5------------|
E-222---------3s5--3------------|
GTR 2
e-------------------------------|
B-------------------------------|
G-------------------------------|
D-444---------5x--555-----------|
A-444---------5x--555-----------|
E-222---------3x--333-----------|
 rooms        lit

GTR 1
e-------------------------------|
B-------------------------------|
G-------------------------------|
D-444---------5s7--5------------|
A-444---------5s7--5------------|
E-222---------3s5--3------------|
GTR 2
e-------------------------------|
B-------------------------------|
G-------------------------------|
D-444---------5x--555-----------|
A-444---------5x--555-----------|
E-222---------3x--333-----------|
  by          the same
GTR 1 and 2
e------xxx--xxx--x--------------|
B-111--xxx--xxx--x--------------|
G-222--444--555--7~-------------|
D-222--444--555--7~-------------|
A-000--222--333--5~-------------|
E------xxx--xxx--x--------------|
star......

CHORUS 2(Acoustic d2..)
e--------------333333333333333333-|
B--------------333333333333333333-|
G--------------000000000000000000-|
D--------------000000000000000000-|
A--------------222222222222222222-|
E--------------333333333333333333-|
Let me know if i'm doing this right

e--------------22222222222222222-|
B--------------33333333333333333-|
G--------------00000000000000000-|
D--------------00000000000000000-|
A--------------00000000000000000-|
E--------------22222222222222222-|
Let me Know if my grips too tight

e--------------33333333333333333-|
B--------------33333333333333333-|
G--------------00000000000000000-|
D--------------22222222222222222-|
A--------------22222222222222222-|
E--------------xxxxxxxxxxxxxxxxx-|
Let me know if i can stay all of

e--333333333--------------------|
B--333333333--------------------|
G--000000000--------------------|
D--222222222--------------------|
A--333333333--------------------|
E--xxxxxxxxx--------------------|
my life...

e--------------333333333333333333-|
B--------------333333333333333333-|
G--------------000000000000000000-|
D--------------000000000000000000-|
A--------------222222222222222222-|
E--------------333333333333333333-|
Let me know if dreams can come true

e--------------22222222222222222-|
B--------------33333333333333333-|
G--------------00000000000000000-|
D--------------00000000000000000-|
A--------------00000000000000000-|
E--------------22222222222222222-|
Let me know if this one's yours too

e-------33333333333333333-------|
B-------33333333333333333-------|
G-------00000000000000000-------|
D-------22222222222222222-------|
A-------22222222222222222-------|
E-------xxxxxxxxxxxxxxxxx-------|
Cause i see it.....

e--333333333--------------------|
B--333333333--------------------|
G--000000000--------------------|
D--222222222--------------------|
A--333333333--------------------|
E--xxxxxxxxx--------------------|
Hooh...................
GTR 1 and 2(11 at 12 yan huh)
e-----------xxx---xxx---xxx---xxx---x-x-x-----x-x-x----x-x-x--------------------|
B-----111-x-xxx-x-xxx-x-xxx-x-xxx-x-x-x-x--x--x-x-x--x-x-x-x--------------------|
G-----222-x-444-x-555-x-777-x-999-x-111111-x--121212-x-111111-------------------|
D-----222-x-444-x-555-x-777-x-999-x-111111-x--121212-x-111111-------------------|
A-----000-x-222-x-333-x-555-x-777-x-9-9-9--x--101010-x-9-9-9--------------------|
E-----------xxx---xxx---xxx---xxx---x-x-x-----x-x-x----x-x-x--------------------|
and i feel........it....... right here........................

e-----------xxx---xxx---xxx-|
B-----111-x-xxx-x-xxx-x-xxx-|
G-----222-x-444-x-555-x-777-|
D-----222-x-444-x-555-x-777-|
A-----000-x-222-x-333-x-555-|
E-----------xxx---xxx---xxx-|
and i feel.......you...right

e-222-333-333-------------------|
B-333-333-333-------------------|
G-222-222-000-------------------|
D-000-000-000-------------------|
A-------------------------------|
E-------------------------------|
here...he...........
(CONTINUATION e2 nung pa fade na ung kanta...)
GTR 1
e----------------------------------------------------|
B----3------3------3-----3-----3-----3-----3-----3---|
G---0-0----0-0----0-0---0-0---0-0---0-0---0-0---0-0--|
D--2---2--2---2--0---0-0---0-0---0-0---0-0---0-0---0-|
A-3-----3-------2-----2-----1-----1-----0-----0------|
E----------------------------------------------------|
GTR 2
e----------------------------------------------------|
B----------------------------------------------------|
G-5~------------4~----------3~-----------2~----------|
D-5~------------4~----------3~-----------2~----------|
A-3~------------2~----------1~-----------0~----------|
E----------------------------------------------------|
re......hooh.......hooh.......hooh.......

OUTRO
(E2 poh around mga 50% ang accuracy rate bsta u be the judge...hehehe)
GTR 1
e-3~-3s5~-3~-2~-----------------|
B-3~-3s5~-3~-3~-----------------|
G-------------------------------|
D-------------------------------|
A-------------------------------|
E-------------------------------|
GTR 2
e-3~------2~-------------------|
B-3~------3~-------------------|
G-0~------0~-------------------|
D-0~------0~-------------------|
A-2~------0~-------------------|
E-3~------2~-------------------|
GTR 1
e-3~-3s5~-2~-3-2-0--------------|
B-3~-3s5~-3~-3-3-0--------------|
G-------------------------------|
D-------------------------------|
A-------------------------------|
E-------------------------------|
GTR 2
e-3~------3~--------------------|
B-3~------3~--------------------|
G-0~------0~--------------------|
D-2~------2~--------------------|
A-2~------3~--------------------|
E-x-------x---------------------|
GTR 1
e-3~-3s5~-7~-7s8~---------------|
B-3~-3s5~-7~-7s8~---------------|
G-------------------------------|
D-------------------------------|
A-------------------------------|
E-------------------------------|
GTR 2
e-3~------2~-------------------|
B-3~------3~-------------------|
G-0~------0~-------------------|
D-0~------0~-------------------|
A-2~------0~-------------------|
E-3~------2~-------------------|
GTR 1
e-7~-5~-3~-2~-------------------|
B-7~-5~-3~-3~-------------------|
G-------------------------------|
D-------------------------------|
A-------------------------------|
E-------------------------------|
GTR 2
e-3~------3~--------------------|
B-3~------3~--------------------|
G-0~------0~--------------------|
D-2~------2~--------------------|
A-2~------3~--------------------|
E-x-------x---------------------|
GTR 1
e-3~-3s5-3-2-3------------------|
B-3~-3s5-3-3-3------------------|
G-------------------------------|
D-------------------------------|
A-------------------------------|
E-------------------------------|
GTR 2
e-3~------2~-------------------|
B-3~------3~-------------------|
G-0~------0~-------------------|
D-0~------0~-------------------|
A-2~------0~-------------------|
E-3~------2~-------------------|
GTR 1
e-3s5-3-2~-2-3-5-7~-------------|
B-3s5-3-3~-3-3-5-7~-------------|
G-------------------------------|
D-------------------------------|
A-------------------------------|
E-------------------------------|
GTR 2
e-3~------3~--------------------|
B-3~------3~--------------------|
G-0~------0~--------------------|
D-2~------2~--------------------|
A-2~------3~--------------------|
E-x-------x---------------------|
GTR 1
e-8-7-8-8s10~-10-8-7------------|
B-8-7-8-8s10~-10-8-7------------|
G-------------------------------|
D-------------------------------|
A-------------------------------|
E-------------------------------|
GTR 2
e-3~------2~-------------------|
B-3~------3~-------------------|
G-0~------0~-------------------|
D-0~------0~-------------------|
A-2~------0~-------------------|
E-3~------2~-------------------|
GTR 1
e-7s8-7-5~-3-2~-3-2-0-----------|
B-7s8-7-5~-3-3~-3-3-0-----------|
G-------------------------------|
D-------------------------------|
A-------------------------------|
E-------------------------------|
GTR 2
e-3~------3~--------------------|
B-3~------3~--------------------|
G-0~------0~--------------------|
D-2~------2~--------------------|
A-2~------3~--------------------|
E-x-------x---------------------|
GTR 1
e-3~-3s5-3-2-3~-2-3-5-----------|
B-3~-3s5-3-3-3~-3-3-5-----------|
G-------------------------------|
D-------------------------------|
A-------------------------------|
E-------------------------------|
GTR 2
e-3~------2~-------------------|
B-3~------3~-------------------|
G-0~------0~-------------------|
D-0~------0~-------------------|
A-2~------0~-------------------|
E-3~------2~-------------------|
GTR 1
e-7~-7-5-3-5-3-2-2-3-5-7~8-10---|
B-7~-7-5-3-5-3-3-3-3-5-7~8-10---|
G-------------------------------|
D-------------------------------|
A-------------------------------|
E-------------------------------|
GTR 2
e-3~------3~--------------------|
B-3~------3~--------------------|
G-0~------0~--------------------|
D-2~------2~--------------------|
A-2~------3~--------------------|
E-x-------x---------------------|
(pahina na po ung strumming d2)
GTR 1
e-3333--2222--3333--3333--------|
B-3333--3333--3333--3333--------|
G-0000--0000--0000--0000--------|
D-0000--0000--2222--2222--------|
A-3333--0000--2222--3333--------|
E-3333--2222--xxxx--xxxx--------|

Para poh pla ito sa pnakamamahal ko...
hehehe...
kilala mo kung sino ka....
sna poh mgustuhan nio poh ito...
tnx poh!!!
[Gem_And_I]
[GeMiNi_16]
[Gemma Mae]
[  Bench  ]
Tap to rate this tab
# A B C D E F G H I J K L M N O P Q R S T U V W X Y Z