Song name
# A B C D E F G H I J K L M N O P Q R S T U V W X Y Z

Sponge Cola - Pare Ko tab

Help us improve GuitareTab! Take a short survey!
-------------------------------------------------------------------------------
			     Pare ko - Spongecola
-------------------------------------------------------------------------------
Tabbed by:  tragigz
Email:icecrimcofi@yahoo.com

Tuning:

e|--------------------------------------10---8--10---10h12-10-8h10-8-7h8-----|
B|---8---8---8----10--8---8-----8-10s12------------8---------------------8---|
G|-----7---7---7--------7---7-9----------------------------------------------|
D|---------------------------------------------------------------------------|
A|---------------------------------------------------------------------------|
E|---------------------------------------------------------------------------|

e|---10-10h12----10----7h8-8-7-8s10--7---------------------------------------|
B|------------12-----------------------8-------------------------------------|
G|---------------------------------------------------------------------------|
D|---------------------------------------------------------------------------|
A|---------------------------------------------------------------------------|
E|---------------------------------------------------------------------------|
Related for Pare Ko tab