Song name
# A B C D E F G H I J K L M N O P Q R S T U V W X Y Z

Sponge Cola - Wandering tab

Title       : Tuliro
Artist      : Sponge cola

Ear tabber  : ROGEM S. BATTUNG
Address     : Palawan St. Sampaloc Manila
E-mail add 1: Guitarizta_rogem@yahoo.com
Contact no  : 09103887102

School      : EARIST B.S. APPLIED PHYSICS-1
Time Elapsed: 2:30-4:20
Date        : Dec 18 2006

this is Tuliro part of their new Album named Transit if you want the complete 
tabs of the Album just type in the "song name" inputbar "Transit"

"""makikita nyo naman name ko dun ehh qng sino gumawa"""

|==========================================================================|
|============================READ FIRST====================================|
|==========================================================================|

ROGEM -> sa mga chord user na Gusto matuto na gumamit ng tab my instruction
         send kyo ng message sa Friendster " Guitarizta_rogem@yahoo.com or 
         Email nyo ako Guitarizta_gem@yahoo.com sabihin nyo kung kailangan 
         nyo ng Instruction sa pagbasa ng Tab forward ko sa inyo T.y.

ROGEM -> Gumawa ako ng dalwang tunning n2 ung naka E-Stadard & naka Eb   
         gumawa ako nun para sa hindi pa marunong mag tono ng Eb-tunning..
         pero mas reccomend ko pa din Eb kc dun talaga nila ginawa ung song
         
ROGEM -> Dedicate ko ulit 2 sa lahat ng Friends ko lahat ng BS APPLIED 
         PHYSICS mga BS. COMPUTER SCIENCE mga BS. MATH at mga BS.PSYCHOLOGY 
         lahat ng taga C.A.S. at lahat ng taga EARIST hehehe

ROGEM -> any suggestion and Comment txt 09103887102 send kyo ng Msj sa 
         Friendster Guitarizta_rogem@yahoo.com

|==========================================================================|
|==========================================================================|
|==========================================================================|

|==================================================|
|==================================================|
|						   |
|                 THE WANDERING-E                  |
|						   |
|==================================================|
|==================================================|

Transcribed by: ROGEM S. BATTUNG
School        : EARIST B.S. APPLIED PHYSICS 
Time Elapsed  : 7:30-8:00
Date          : Dec 16 2006
Contact no    : 09103887102

INTRO
    Eb           B          Eb            C#
e|-----------|----------|------------|----------|
B|-----------|----------|------------|----------|
G|-888888888-|-44444444-|-888888888--|-666666---|
D|-888888888-|-44444444-|-888888888--|-666666---|
A|-666666666-|-22222222-|-666666666--|-444444---|
E|-----------|----------|------------|----------|

ROGEM - > 1 strum po i2 ha pakingan nyo sa cd pero
	  qng gusto nyo continues strum kyo bahala

VERSE
   B                                                G#m
e|--------------------------------------------------------------|
B|--------------------------------------------------------------|
G|-4------------------------------------------------------------|
D|-4------------------------------------------------6-----------|
A|-2------------------------------------------------6-----------|
E|--------------------------------------------------4-----------|
Kate is a little restless as she wipes her brow and for a second
                 Eb                    C#
e|--------------------------------------------------------------|
B|--------------------------------------------------------------|
G|---------------6--------------------6-------------------------|
D|---------------6--------------------6-------------------------|
A|---------------8--------------------4-------------------------|
E|--------------------------------------------------------------|
She hesitates to move     Its all to soon...


   B                                                G#m
e|--------------------------------------------------------------|
B|--------------------------------------------------------------|
G|-4------------------------------------------------------------|
D|-4------------------------------------------------6-----------|
A|-2------------------------------------------------6-----------|
E|--------------------------------------------------4-----------|
I look inside and feign suspicion   Logic hand in hand with
reason swoons beneath the
                 Eb                    C#
e|--------------------------------------------------------------|
B|--------------------------------------------------------------|
G|---------------6--------------------6-------------------------|
D|---------------6--------------------6-------------------------|
A|---------------8--------------------4-------------------------|
E|--------------------------------------------------------------|
		truth  takes a beating


ROGEM - > ( Struming na d2 ha )

CHORUS
   E                      G#m
e|--------------------------------------------|
B|--------------------------------------------|
G|--------------------------------------------|
D|-2-2-2-2-2-2-----------6-6-6-6-6-6----------|2x
A|-2-2-2-2-2-2-----------6-6-6-6-6-6----------|
E|-0-0-0-0-0-0-----------4-4-4-4-4-4----------|
   Ohhh                  Open up from under me
   Ohhh                   Sing to me a


e|----------------------------|
B|----------------------------|
G|----------------------------|
D|-6-7-7--6-7-7--6-7-7--6-7-7-|
A|-6-7-7--6-7-7--6-7-7--6-7-7-|
E|-4-5-5--4-5-5--4-5-5--4-5-5-|
    remedy

e|----------------------------|
B|----------------------------|
G|--4-66-4-66-4-66--4/6--4-6--|
D|--4-66-4-66-4-66--4/6--4-6--|
A|--2-44-2-44-2-44--2/4--2-4--|
E|----------------------------|

    E Ebm  B Bb B Bb  G#m              E
e|----------------------------------------------------|
B|----------------------------------------------------|
G|--9--8---4--3/4\3-----------------------------------|
D|--9--8---4--3/4\3----6-6-6-6-6-6-6--2-2-2-2-2-2-2-2-|
A|--7--6---2--1/2\1----6-6-6-6-6-6-6--2-2-2-2-2-2-2-2-|
E|---------------------4-4-4-4-4-4-4--0-0-0-0-0-0-0-0-|
   Why cant I sever the ties with the unforgiving sky

                     G#m              E                       F#
e|---------------------------------------------------------------|
B|---------------------------------------------------------------|
G|---------------------------------------------------------------|
D|------------------6-6-6-6-6-6-----2-2-2-2-2-2------------444444|
A|------------------6-6-6-6-6-6-----2-2-2-2-2-2------------444444|
E|------------------4-4-4-4-4-4-----0-0-0-0-0-0------------222222|
The past of all my lies Vestiges of smoke cloud my view of hope
                     G#m              E                       F#
e|---------------------------------------------------------------|
B|---------------------------------------------------------------|
G|---------------------------------------------------------------|
D|------------------6-6-6-6-6-6-----2-2-2-2-2-2------------444444|
A|------------------6-6-6-6-6-6-----2-2-2-2-2-2------------444444|
E|------------------4-4-4-4-4-4-----0-0-0-0-0-0------------222222|
Six feet of concrete right beneath my feet And I am lost again


INTERLUDE
    Eb           B          Eb            C#
e|-----------|----------|------------|----------|
B|-----------|----------|------------|----------|
G|-888888888-|-44444444-|-888888888--|-666666---|
D|-888888888-|-44444444-|-888888888--|-666666---|
A|-666666666-|-22222222-|-666666666--|-444444---|
E|-----------|----------|------------|----------|


VERSE II


   B                                                G#m
e|--------------------------------------------------------------|
B|--------------------------------------------------------------|
G|-4------------------------------------------------------------|
D|-4------------------------------------------------6-----------|
A|-2------------------------------------------------6-----------|
E|--------------------------------------------------4-----------|
Kate is a little hopeless  as  she looks at me and for a second
                 Eb                    C#
e|--------------------------------------------------------------|
B|--------------------------------------------------------------|
G|---------------6--------------------6-------------------------|
D|---------------6--------------------6-------------------------|
A|---------------8--------------------4-------------------------|
E|--------------------------------------------------------------|
She hesitates to move       Its all to soon

   B                                                G#m
e|--------------------------------------------------------------|
B|--------------------------------------------------------------|
G|-4------------------------------------------------------------|
D|-4------------------------------------------------6-----------|
A|-2------------------------------------------------6-----------|
E|--------------------------------------------------4-----------|
Beneath her
facade lies another bewilders me further And I am so endlessly drawn
                 Eb                    C#
e|--------------------------------------------------------------|
B|--------------------------------------------------------------|
G|---------------6--------------------6-------------------------|
D|---------------6--------------------6-------------------------|
A|---------------8--------------------4-------------------------|
E|--------------------------------------------------------------|
Endlessly drawn to the truth   Takes new meaning


CHORUS
   E                      G#m
e|--------------------------------------------|
B|--------------------------------------------|
G|--------------------------------------------|
D|-2-2-2-2-2-2-----------6-6-6-6-6-6----------|2x
A|-2-2-2-2-2-2-----------6-6-6-6-6-6----------|
E|-0-0-0-0-0-0-----------4-4-4-4-4-4----------|
   Ohhh..                Open up from under me
   Ohhh..                 Sing to me a

e|----------------------------|
B|----------------------------|
G|----------------------------|
D|-6-7-7--6-7-7--6-7-7--6-7-7-|
A|-6-7-7--6-7-7--6-7-7--6-7-7-|
E|-4-5-5--4-5-5--4-5-5--4-5-5-|
    remedy

e|----------------------------|
B|----------------------------|
G|--4-66-4-66-4-66--4/6--4-6--|
D|--4-66-4-66-4-66--4/6--4-6--|
A|--2-44-2-44-2-44--2/4--2-4--|
E|----------------------------|


    E Ebm  B Bb B Bb  G#m              E
e|----------------------------------------------------|
B|----------------------------------------------------|
G|--9--8---4--3/4\3-----------------------------------|
D|--9--8---4--3/4\3----6-6-6-6-6-6-6--2-2-2-2-2-2-2-2-|
A|--7--6---2--1/2\1----6-6-6-6-6-6-6--2-2-2-2-2-2-2-2-|
E|---------------------4-4-4-4-4-4-4--0-0-0-0-0-0-0-0-|
   Why cant I sever the ties with the unforgiving sky

                     G#m              E                       F#
e|---------------------------------------------------------------|
B|---------------------------------------------------------------|
G|---------------------------------------------------------------|
D|------------------6-6-6-6-6-6-----2-2-2-2-2-2------------444444|
A|------------------6-6-6-6-6-6-----2-2-2-2-2-2------------444444|
E|------------------4-4-4-4-4-4-----0-0-0-0-0-0------------222222|
The past of all my lies Vestiges of smoke cloud my view of hope

                     G#m              E                       F#
e|---------------------------------------------------------------|
B|---------------------------------------------------------------|
G|---------------------------------------------------------------|
D|------------------6-6-6-6-6-6-----2-2-2-2-2-2------------444444|
A|------------------6-6-6-6-6-6-----2-2-2-2-2-2------------444444|
E|------------------4-4-4-4-4-4-----0-0-0-0-0-0------------222222|
Six feet of concrete right beneath my feet And I am lost again

e|------------------------------|--------------------------------|
B|------------------------------|--------------------------------|
G|------------------------------|--x9---8x9x8x9x-x9--8x9x8x9-----|
D|-6---4x6x4x6-x6---4x6x4x6x----|--x9---8x9x8x9x-x9--8x9x8x9-----|
A|-6---4x6x4x6-x6---4x6x4x6x----|--x7---6x7x6x7x-x7--6x7x6x7-----|
E|-4---2x4x2x4-x4---2x4x2x4x----|--------------------------------|


e|------------------------------|--------------------------------|
B|------------------------------|--------------------------------|
G|------------------------------|--------------------------------|
D|-6---4x6x4x6-x6---4x6x4x-6-6-6|--2---2-2-2-2-2-2-2-------------|
A|-6---4x6x4x6-x6---4x6x4x-6-6-6|--2---2-2-2-2-2-2-2-------------|
E|-4---2x4x2x4-x4---2x4x2x-4-4-4|--0---0-0-0-0-0-0-0-------------|

e|----------------------------------------------------------|
B|----------------------------------------------------------|
G|/9--x8-x4--3/4\3--/9--x8-x4--3/4\3------------------------|
D|/9--x8-x4--3/4\3--/9--x8-x4--3/4\3--x6----x6---x6-8-4-----|
A|/7--x6-x2--1/2\1--/7--x6-x2--1/2\1--x6----x6---x6-8-4-----|
E|------------------------------------x4----x4---x4-6-2-----|

ROGEM - Pluck na po dto pakingan nyo sa cd maganda
	2ng part na 2 favorite ko 2ng part na 2

   F#              G#m             Fm              F#
e|---------------|---------------|---------------|----------------|
B|---------------|---------------|---------------|---4-4---4-4----|
G|----4-4----4-4-|----4-4----4-4-|----1-1----1-1-|--5-5---5-5-----|
D|---5-5----5-5--|---6-6----6-6--|---3-3----3-3--|----------------|
A|---------------|---------------|---------------|----------------|
E|-2------2------|/4------4------|-1------1------|-2-----2--------|

Rogem - pluck pa rin d2 may distortion na d2
        e2 din ung gagamitin sa solo sa solo ung 16b full bend po
	un hangang sa maging atunog nya ung 18 eb- String
	pati ung 12 dapat maging kasing 2nog nya ung 13 pag nag
	full bend kayo

    B                 C#           B                 Bbm
e|---------------|---------------|----------------|---------------|
B|---------------|---------------|----------------|---------------|
G|---------------|---------------|----------------|---------------|
D|----4-4-----4-4|----6-6-----6-6|----4-4-----4-4-|---3-3------3-3|
A|2--2-2--2--2-2-|-4-4-4--4--4-4-|-2-2-2---2-2-2--|1-1-1---1--1-1-|
E|---------------|---------------|----------------|---------------|

SOLO/ADliB
    f.b. f.b
e|--16b-16b----------18\16----16------18~----|
B|-------------------------------------------|
G|-------------------------------------------|
D|-------------------------------------------|
A|-------------------------------------------|
E|-------------------------------------------|
    f.b. f.b
e|--16b-16b-------------------9-------18~----|
B|-------------------9s11--------------------|
G|-------------------------------------------|
D|-------------------------------------------|
A|-------------------------------------------|
E|-------------------------------------------|

e|-----------18-----\9--------11------13-----|
B|--9-7-7------------------------------------|
G|-------------------------------------------|
D|-------------------------------------------|
A|-------------------------------------------|
E|-------------------------------------------|
 	    f.b.
e|-11--17b--12b----11--9----7-6-4------------|
B|----------------------------------7s9-7----|
G|-------------------------------------------|
D|-------------------------------------------|
A|-------------------------------------------|
E|-------------------------------------------|

   F#        F#/F               Ebm              C#
e|--------------------------------------------------------|
B|--------------------------------------------------------|
G|----------------------------8-8-8-8------------7-7-7-7--|
D|-4-4-4-4---3-3-3-3----------8-8-8-8------------7-7-7-7--|
A|-4-4-4-4---4-4-4-4----------6-6-6-6------------5-5-5-5--|
E|-2-2-2-2---1-1-1-1--------------------------------------|
   Lower me evasive as these keep you in my dreams


   F#        F#/F               Ebm              C#
e|--------------------------------------------------------|
B|--------------------------------------------------------|
G|----------------------------8-8-8-8------------7-7-7-7--|
D|-4-4-4-4---3-3-3-3----------8-8-8-8------------7-7-7-7--|
A|-4-4-4-4---4-4-4-4----------6-6-6-6------------5-5-5-5--|
E|-2-2-2-2---1-1-1-1--------------------------------------|
   Lower me illusive as these keep you in my dreams

ROGEM - > Continue nyo lang ung strum hangang sa matapos
	  Last Chord G

ROGEM -> any suggestion and Comment txt 09103887102 send kyo ng Msj sa 
         Friendster Guitarizta_rogem@yahoo.com

|==========================================================================|
|===========================EB-TUNNING=====================================|
|==========================================================================|

this is Tuliro part of their new Album named Transit if you want the complete 
tabs of the Album just type in the "song name" inputbar "Transit"

"""makikita nyo naman name ko dun ehh qng sino gumawa"""


|==================================================|
|==================================================|
|						   |
|                 THE WANDERING                    |
|						   |
|==================================================|
|==================================================|

Transcribed by: ROGEM S. BATTUNG
School        : EARIST B.S. APPLIED PHYSICS 
Time Elapsed  : 7:30-8:00
Date          : Dec 16 2006
Contact no    : 09103887102

INTRO
    E           c          E            D
eb|-----------|----------|------------|----------|
Bb|-----------|----------|------------|----------|
Gb|-999999999-|-55555555-|-999999999--|-777777---|
Db|-999999999-|-55555555-|-999999999--|-777777---|
Ab|-777777777-|-33333333-|-777777777--|-555555---|
Eb|-----------|----------|------------|----------|

ROGEM - > 1 strum po i2 ha pakingan nyo sa cd pero
	  qng gusto nyo continues strum kyo bahala

VERSE
   C                                                Am
eb|--------------------------------------------------------------|
Bb|--------------------------------------------------------------|
Gb|-5------------------------------------------------------------|
Db|-5------------------------------------------------7-----------|
Ab|-3------------------------------------------------7-----------|
Eb|--------------------------------------------------5-----------|
Kate is a little restless as she wipes her brow and for a second
                 E                    D
eb|--------------------------------------------------------------|
Bb|--------------------------------------------------------------|
Gb|---------------7--------------------7-------------------------|
Db|---------------7--------------------7-------------------------|
Ab|---------------9--------------------5-------------------------|
Eb|--------------------------------------------------------------|
She hesitates to move     Its all to soon...


    C                                                Am
eb|--------------------------------------------------------------|
Bb|--------------------------------------------------------------|
Gb|-5------------------------------------------------------------|
Db|-5------------------------------------------------7-----------|
Ab|-3------------------------------------------------7-----------|
Eb|--------------------------------------------------5-----------|
I look inside and feign suspicion   Logic hand in hand with
reason swoons beneath the

		  E                    D
eb|--------------------------------------------------------------|
Bb|--------------------------------------------------------------|
Gb|---------------7--------------------7-------------------------|
Db|---------------7--------------------7-------------------------|
Ab|---------------9--------------------5-------------------------|
Eb|--------------------------------------------------------------|
		truth  takes a beating


ROGEM - > ( Struming na d2 ha )

CHORUS
   F                      Am
eb|--------------------------------------------|
Bb|--------------------------------------------|
Gb|--------------------------------------------|
Db|-3-3-3-3-3-3-3----------7-7-7-7-7-7---------|2x
Ab|-3-3-3-3-3-3-3----------7-7-7-7-7-7---------|
Eb|-1-1-1-1-1-1-1----------5-5-5-5-5-5---------|
   Ohhh                  Open up from under me
   Ohhh                   Sing to me a


eb|----------------------------|
Bb|----------------------------|
Gb|----------------------------|
Db|-7-8-8--7-8-8--7-8-8--7-8-8-|
Ab|-7-8-8--7-8-8--7-8-8--7-8-8-|
Eb|-5-6-6--5-6-6--5-6-6--5-6-6-|
    remedy

eb|----------------------------|
Bb|----------------------------|
Gb|--5-77-5-77-5-77--5/7--5-7--|
Db|--5-77-5-77-5-77--5/7--5-7--|
Ab|--3-55-3-55-3-55--3/5--3-5--|
Eb|----------------------------|

   F   Em  C  B C B   Am                 F
e|------------------------------------------------------|
B|------------------------------------------------------|
G|-10--9---5--4/5\4-------------------------------------|
D|-10--9---5--4/5\4---7--7-7-7-7-7-7-7--3-3-3-3-3-3-3-3-|
A|-8---7---3--2/3\2---7--7-7-7-7-7-7-7--3-3-3-3-3-3-3-3-|
E|--------------------5--5-5-5-5-5-5-5--1-1-1-1-1-1-1-1-|
   Why cant I sever the ties with the unforgiving sky

                     Am              F                       G
eb|---------------------------------------------------------------|
Bb|---------------------------------------------------------------|
Gb|---------------------------------------------------------------|
Db|-------------------7-7-7-7-7-7----3-3-3-3-3-3------------555555|
Ab|-------------------7-7-7-7-7-7----3-3-3-3-3-3------------555555|
Eb|-------------------5-5-5-5-5-5----1-1-1-1-1-1------------333333|
The past of all my lies Vestiges of smoke cloud my view of hope
                     Am              F                C
eb|---------------------------------------------------------------|
Bb|---------------------------------------------------------------|
Gb|---------------------------------------------------5-5-5-5-5-5-|
Db|-------------------7-7-7-7-7-7----3-3-3-3-3-3------5-5-5-5-5-5-|
Ab|-------------------7-7-7-7-7-7----3-3-3-3-3-3------3-3-3-3-3-3-|
Eb|-------------------5-5-5-5-5-5----1-1-1-1-1-1------------------|
Six feet of concrete right beneath my feet And I am lost again


INTERLUDE
    E           c         E          D
eb|-----------|----------|------------|----------|
Bb|-----------|----------|------------|----------|
Gb|-999999999-|-55555555-|-999999999--|-777777---|
Db|-999999999-|-55555555-|-999999999--|-777777---|
Ab|-777777777-|-33333333-|-777777777--|-555555---|
Eb|-----------|----------|------------|----------|

VERSE II


   C                                                Am
eb|--------------------------------------------------------------|
Bb|--------------------------------------------------------------|
Gb|-5------------------------------------------------------------|
Db|-5------------------------------------------------7-----------|
Ab|-3------------------------------------------------7-----------|
Eb|--------------------------------------------------5-----------|
Kate is a little hopeless  as  she looks at me and for a second
                  E                    D
eb|--------------------------------------------------------------|
Bb|--------------------------------------------------------------|
Gb|---------------7--------------------7-------------------------|
Db|---------------7--------------------7-------------------------|
Ab|---------------9--------------------5-------------------------|
Eb|--------------------------------------------------------------|
She hesitates to move       Its all to soon

   C                                                Am
eb|--------------------------------------------------------------|
Bb|--------------------------------------------------------------|
Gb|-5------------------------------------------------------------|
Db|-5------------------------------------------------7-----------|
Ab|-3------------------------------------------------7-----------|
Eb|--------------------------------------------------5-----------|
Beneath her
facade lies another bewilders me further And I am so endlessly drawn

                  E                    D
eb|--------------------------------------------------------------|
Bb|--------------------------------------------------------------|
Gb|---------------7--------------------7-------------------------|
Db|---------------7--------------------7-------------------------|
Ab|---------------9--------------------5-------------------------|
Eb|--------------------------------------------------------------|
Endlessly drawn to the truth   Takes new meaning

CHORUS

   F                      Am
eb|--------------------------------------------|
Bb|--------------------------------------------|
Gb|--------------------------------------------|
Db|-3-3-3-3-3-3-3----------7-7-7-7-7-7---------|2x
Ab|-3-3-3-3-3-3-3----------7-7-7-7-7-7---------|
Eb|-1-1-1-1-1-1-1----------5-7-7-7-7-7---------|
   Ohhh..                Open up from under me
   Ohhh..                 Sing to me a

eb|----------------------------|
Bb|----------------------------|
Gb|----------------------------|
Db|-7-8-8--7-8-8--7-8-8--7-8-8-|
Ab|-7-8-8--7-8-8--7-8-8--7-8-8-|
Eb|-5-6-6--5-6-6--5-6-6--5-6-6-|
    remedy

eb|----------------------------|
Bb|----------------------------|
Gb|--5-77-5-77-5-77--5/7--5-7--|
Db|--5-77-5-77-5-77--5/7--5-7--|
Ab|--3-55-3-55-3-55--3/5--3-5--|
Eb|----------------------------|

   F   Em  C  B C B   Am                F
e|------------------------------------------------------|
B|------------------------------------------------------|
G|-10--9---5--4/5\4-------------------------------------|
D|-x---x---x--x/x\x---7--7-7-7-7-7-7-7--3-3-3-3-3-3-3-3-|
A|-8---7---3--2/3\2---7--7-7-7-7-7-7-7--3-3-3-3-3-3-3-3-|
E|--------------------5--5-5-5-5-5-5-5--1-1-1-1-1-1-1-1-|
   Why cant I sever the ties with the unforgiving sky

                     Am              F                       G
eb|---------------------------------------------------------------|
Bb|---------------------------------------------------------------|
Gb|---------------------------------------------------------------|
Db|-------------------7-7-7-7-7-7----3-3-3-3-3-3------------555555|
Ab|-------------------7-7-7-7-7-7----3-3-3-3-3-3------------555555|
Eb|-------------------5-5-5-5-5-5----1-1-1-1-1-1------------333333|
The past of all my lies Vestiges of smoke cloud my view of hope
                      Am              F                       G
eb|---------------------------------------------------------------|
Bb|---------------------------------------------------------------|
Gb|---------------------------------------------------------------|
Db|-------------------7-7-7-7-7-7----3-3-3-3-3-3------------555555|
Ab|-------------------7-7-7-7-7-7----3-3-3-3-3-3------------555555|
Eb|-------------------5-5-5-5-5-5----1-1-1-1-1-1------------333333|
Six feet of concrete right beneath my feet And I am lost again

eb|------------------------------|--------------------------------|
Bb|------------------------------|--------------------------------|
Gb|------------------------------|--------------------------------|
Db|-7---5x7x5x7-x7---5x7x5x7x----|--x3---2x3x2x3x-x3--2x3x2x3-----|
Ab|-7---5x7x5x7-x7---5x7x5x7x----|--x3---2x3x2x3x-x3--2x3x2x3-----|
Eb|-5---3x5x3x5-x5---3x5x3x5x----|--x1---0x1x0x1x-x1--0x1x0x1-----|


eb|------------------------------|--------------------------------|
Bb|------------------------------|--------------------------------|
Gb|------------------------------|--------------------------------|
Db|-7---5x7x5x7-x7---5x7x5x-7-7-7|--3---3-3-3-3-3-3-3-------------|
Ab|-7---5x7x5x7-x7---5x7x5x-7-7-7|--3---3-3-3-3-3-3-3-------------|
Eb|-5---3x5x3x5-x5---3x5x3x-5-5-5|--1---1-1-1-1-1-1-1-------------|

eb|----------------------------------------------------------|
Bb|----------------------------------------------------------|
Gb|/10--9-x5--4/5\4--/10--9--5--4/5\4------------------------|
Db|/x---x-xx--x/x\x--/x---x--x--x/x\x--x7----x7---x7-9-5-----|
Ab|/8---7-x3--2/3\2--/8---7--3--2/3\2--x7----x7---x7-9-5-----|
Eb|------------------------------------x5----x5---x5-7-3-----|

ROGEM - Pluck na po dto pakingan nyo sa cd maganda
	2ng part na 2 favorite ko 2ng part na 2

   G              Am             F#m             G
eb|---------------|---------------|---------------|----------------|
Bb|----0-0----0-0-|---------------|---------------|---0-0---0-0----|
Gb|---0-0----0-0--|----5-5----5-5-|----2-2----2-2-|--0-0---0-0-----|
Db|---------------|---7-7----7-7--|---4-4----4-4--|----------------|
Ab|---------------|---------------|---------------|----------------|
Eb|-3------3------|/5------5------|-2------2------|-3-----3--------|

Rogem - pluck pa rin d2 may distortion na d2
        e2 din ung gagamitin sa solo sa solo ung 17b full bend po
	un hangang sa maging atunog nya ung 19 eb- String
	pati ung 12 dapat maging kasing 2nog nya ung 14 pag nag
	full bend kayo

    C                 D                 C                 Bm
eb|---------------|---------------|----------------|---------------|
Bb|---------------|---------------|----------------|---------------|
Gb|---------------|---------------|----------------|---------------|
Db|----5-5-----5-5|----7-7-----7-7|----5-5-----5-5-|---4-4------4-4|
Ab|3--3-3--3--3-3-|-5-5-5--5--5-5-|-3-3-3---3-3-3--|2-2-2---2--2-2-|
Eb|---------------|---------------|----------------|---------------|

SOLO/ADliB
    f.b. f.b
eb|--17b-17b----------19\17----17------19~----|
Bb|-------------------------------------------|
Gb|-------------------------------------------|
Db|-------------------------------------------|
Ab|-------------------------------------------|
Eb|-------------------------------------------|
    f.b. f.b
eb|--17b-17b-------------------10------19~----|
Bb|------------------10s12--------------------|
Gb|-------------------------------------------|
Db|-------------------------------------------|
Ab|-------------------------------------------|
Eb|-------------------------------------------|

eb|-----------19-----\10-------12------14-----|
Bb|-10-8-8------------------------------------|
Gb|-------------------------------------------|
Db|-------------------------------------------|
Ab|-------------------------------------------|
Eb|-------------------------------------------|
 	     f.b.
eb|-12--18b--13b----12-10----8-7-5------------|
Bb|----------------------------------8s10-8---|
Gb|-------------------------------------------|
Db|-------------------------------------------|
Ab|-------------------------------------------|
Eb|-------------------------------------------|

   G         G/F#                Em              D
eb|--------------------------------------------------------|
Bb|--------------------------------------------------------|
Gb|-----------------------------------------------7-7-7-7--|
Db|-5-5-5-5---4-4-4-4-------------2-2-2-2---------7-7-7-7--|
Ab|-5-5-5-5---5-5-5-5-------------2-2-2-2---------5-5-5-5--|
Eb|-3-3-3-3---2-2-2-2-------------0-0-0-0------------------|
   Lower me evasive as these keep you in my dreams

   G         G/F#                Em              D
eb|--------------------------------------------------------|
Bb|--------------------------------------------------------|
Gb|-----------------------------------------------7-7-7-7--|
Db|-5-5-5-5---4-4-4-4-------------2-2-2-2---------7-7-7-7--|
Ab|-5-5-5-5---5-5-5-5-------------2-2-2-2---------5-5-5-5--|
Eb|-3-3-3-3---2-2-2-2-------------0-0-0-0------------------|
   Lower me illusive as these keep you in my dreams

ROGEM - > Continue nyo lang ung strum hangang sa matapos
	  Last Chord G


ROGEM -> any suggestion and Comment txt 09103887102 send kyo ng Msj sa 
         Friendster Guitarizta_rogem@yahoo.com
|==========================================================================|
|==========================================================================|
|==========================================================================|


this is Tuliro part of their new Album named Transit if you want the complete 
tabs of the Album just type in the "song name" inputbar "Transit"

"""makikita nyo naman name ko dun ehh qng sino gumawa"""
Tap to rate this tab
# A B C D E F G H I J K L M N O P Q R S T U V W X Y Z