Song name
# A B C D E F G H I J K L M N O P Q R S T U V W X Y Z

Sponge Cola - Tuloy Pa Rin tab

Tuloy pa rin by Sponge Cola 

Di Talaga Yong Tama.. But its accurate (ayon sa pagkapa ko!).. F may mali man, just put it in
the comments area.. hehe.. Greet k0 Lang mGa siGa sA amOng Pur0k!...

Namely ( By alphabetical order ) ..hehe kA cuTE!..

Joed Curayag - (insoT foR short) haha..
Gerrard LAraga - ( Donkey )EhHhAa..
DanieL PepiTo - ( Opaw! )..hehe
Dave Tulang - ( KokEy! )..haha

BurAk mgA Tga CMU!!... YeaH!!

Tabbed by: Ric Tobias
Friendster: Rtob_03@yahoo.com


Intro:(Medyo mahaba yong intro, Makukuha nyo rin yan! Hehe)

Guitar 1: ( G power chord )

e|-----------------------------|
b|-----------------------------|
g|-----------------------------|
D|---55---55---55---55---------|2x
A|---55---55---55---55---------|
E|---33---33---33---33---------|


Guitar 2:

(Lead For the 1st G)    (Lead for the 2nd G)
e|----------------|  |----------------------|
b|---2-3-5--------|  |----6/8---8\6---6/8---|
g|---2-3-5--------|  |----5/7---7\5---5/7---|
D|----------------|  |----------------------|
A|----------------|  |----------------------|
E|----------------|  |----------------------|

( Just slide up and down )
e|---------------------------------------------|
b|---------------------------------------------|
g|---77\66/77---99---77\66/77---99---777~--6---|
D|---------------------------------------------|
A|---55\44/55---77---55\44/55---77---555~--4---|
E|---------------------------------------------|

( haHh.. Hahh.. Hahh.. )
e|-----------------------------------------------|
b|-----------------------------------------------|
g|--------------------101010--77--66—---12-------|
D|--555---777---888---101010--77--66—---12-------|
A|--555---777---888---8-8-8---55--44----10-------|
E|--333---555---666------------------------------|

Verse:

Guitar 1:
e|--------------------|
b|--------------------|
g|--------------------|
D|--------------------|(Palm Mute)
A|---555555~----------|
E|---333333~----------|

Guitar 2:(sa “Tawirin at lahat” banda).. hehe
e|--------------------|
b|--------------------|
g|----------12--------|
D|----------12--------|(Palm Mute)
A|---7--5---10--------|
E|---5--3-------------|

Eto na’ng panahon
Atin nang TAWIRIN ang daang pasulong
Walang lilingon, Pabalik iwanan ang LAHAT ng kaba at puot.

Pre chorus:

G         C# - D
Takot ay iyong limutin
G         A - Bb
Kalaba’y tatalunin
G         C#  - D
Walang sasantuhin
   Bb           A
Basta’t iyo lamang sabihin

( haHh.. Hahh.. Hahh.. )
e|-------------------------------|
b|-------------------------------|
g|--------------------101010-----|
D|--555---777---888---101010-----|
A|--555---777---888---8-8-8------|
E|--333---555---666--------------|

e|---------------|
b|---------------|
g|--7777~--10----|
D|--7777---10----|
A|--5555~--8-----|
E|---------------|
Tayo’y magpapatuloy...

Chorus: ( Use Power chords )

Bb                    F
Bawat tumba’y muling babangon
          Dm
Pilit na tatayo
          C
Laba’y tuloy parin
Bb                     F
Bawat tamang aking matatamo
       Dm                C          A   -  G
Ay isasantabi walang hadlang ang makakahinto

Guitar 1: ( Pakingan nyo lang yong may Break na part )

e|-----------------------------|
b|-----------------------------|
g|-----------------------------|
D|---55---55---55---55---------|2x
A|---55---55---55---55---------|
E|---33---33---33---33---------|


Guitar 2:

(Lead For the 1st G)    (Lead for the 2nd G)
e|----------------|  |----------------------|
b|---2-3-5--------|  |----6/8---8\6---6/8---|
g|---2-3-5--------|  |----5/7---7\5---5/7---|
D|----------------|  |----------------------|
A|----------------|  |----------------------|
E|----------------|  |----------------------|

Verse 2:

Guitar 1:
e|--------------------|
b|--------------------|
g|--------------------|
D|--------------------|
A|---555555~----------|
E|---333333~----------|

Guitar 2:(sa “panibago” banda).. hehe
e|--------------------|
b|--------------------|
g|----------12--------|
D|----------12--------|
A|---7--5---10--------|
E|---5--3-------------|


Makipagsapalaran panibagong mukha PANIBAGO nang simula
At Walang aatrasan sumapit ma’ng dilim aking

e|---------------|
b|---------------|
g|--7777~--10----|
D|--7777---10----|
A|--5555~--8-----|
E|---------------|

Sinta . . .Tayo’y magpapatuloy...

Chorus: ( Use Power chords )

Bb                    F
Bawat tumba’y muling babangon
          Dm
Pilit na tatayo
          C
Laba’y tuloy parin
Bb                     F
Bawat tamang aking matatamo
       Dm                C          A   -  G
Ay isasantabi walang hadlang ang makakahinto

Intro:

Guitar 1: (Patuloy lang hanggang adlib)

e|-----------------------------|
b|-----------------------------|
g|-----------------------------|
D|---55---55---55---55---------|2x
A|---55---55---55---55---------|
E|---33---33---33---33---------|


Guitar 2:

(Lead For the 1st G)    (Lead for the 2nd G)
e|----------------|  |----------------------|
b|---2-3-5--------|  |----6/8---8\6---6/8---|
g|---2-3-5--------|  |----5/7---7\5---5/7---|
D|----------------|  |----------------------|
A|----------------|  |----------------------|
E|----------------|  |----------------------|

Adlib: (Madali lang to, walang Lead! Chords lang na may Distort…hehe)

e|-------------------------------------------------------|
b|-------------------------------------------------------|
g|---77777~---1010101010~---1212121212~---1515151515~----|
D|-------------------------------------------------------|
A|---55555~---8-8-8-8-8-~---1010101010~---1313131313~----|
E|-------------------------------------------------------|

Chorus: ( Use Power chords )

Bb                    F
Bawat tumba’y muling babangon
          Dm
Pilit na tatayo
          C
Laba’y tuloy parin
Bb                     F
Bawat tamang aking matatamo
       Dm                C          A   -  G
Ay isasantabi walang hadlang ang makakahinto

Repeat chorus again..

(Use Chorus chords)

Tayoy Tuloy pa rin..(4x)

e|-----------------------------|
b|-----------------------------|
g|-----------------------------|
D|---55---55---55---55---------|
A|---55---55---55---55---------|
E|---33---33---33---33---------|

END!! YEaH!!
Tap to rate this tab
# A B C D E F G H I J K L M N O P Q R S T U V W X Y Z