Song name
# A B C D E F G H I J K L M N O P Q R S T U V W X Y Z

Sponge Cola - Closer You And I tab

e :----------------8--6---------------|
B :-6--6---6--6---------------10--11--|
G :------7----------------------------|
D :-----------------------------------|
A :-----------------------------------|
D :-----------------------------------|

e |------------------------------------------|
B |---6---8---6---8---6---8------------------|
G |------------------------------------------|
D |-----8-------8-------8----8-----7--8--10--|
A |------------------------------------------|
D |------------------------------------------|




EASY LNG, KAYA NYO YAN...

RATE LNG PO... PLSSSS...

FROM: MASTERALJON
Tap to rate this tab
 
# A B C D E F G H I J K L M N O P Q R S T U V W X Y Z