Guitaretab - guitar tabs
Song name
# A B C D E F G H I J K L M N O P Q R S T U V W X Y Z

Sponge Cola - Di Na Mababawi tab

-----------------------------------------------------------------------------
			     Di Na Mababawi - Sponge Cola
-----------------------------------------------------------------------------
Tabbed by: Jeremy Fox
Email: jeremy.2142@hotmail.com

Tuning: Standard
_____________________________________________________________________________

Intro: 0:00 - 0:05

e|--5~--------|
B|---3~-------|
G|----4~------|
D|-----2~-----|
A|------------|
E|------------|

_____________________________________________________________________________

1st Verse: 0:05 - 0:40

(0:05 - 0:15) Riff 1 (x2)

Strum Pattern: Down, Up, Down, Up, Down, Up, Down, Up

    Bm     A        D
e|--2-2---x-x---2~-2--2~-2--|
B|--3-3---2-2---3~-3--3~-3--|
G|--4-4---2-2---2~-2--2~-2--|
D|--4-4---2-2---0~-0--0~-0--|
A|--2-2---0-0---------------|
E|--------------------------|
In- uu -  nawan pilit ...

(0:15 - 0:22) Riff 2

Strum Pattern: Down, Up, Down, Up, Down, Up, Down, Up, Down, Down

    Bm     A     D     A    Bm  A
e|--2-2---x-x---2~-2--x-x---2~--x---------|
B|--3-3---2-2---3~-3--2-2---3~--2~--------|
G|--4-4---2-2---2~-2--2-2---4~--2~--------|
D|--4-4---2-2---0~-0--2-2---4~--2~--------|
A|--2-2---0-0---------0-0---2~--0~--------|
E|----------------------------------------|

(0:22 - 0:32) Riff 1 (x2)

Strum Pattern: Down, Up, Down, Up, Down, Up, Down, Up

    Bm     A        D
e|--2-2---x-x---2~-2--2~-2--|
B|--3-3---2-2---3~-3--3~-3--|
G|--4-4---2-2---2~-2--2~-2--|
D|--4-4---2-2---0~-0--0~-0--|
A|--2-2---0-0---------------|
E|--------------------------|

(0:32 - 0:40) Riff 2

Strum Pattern: Down, Up, Down, Up, Down, Up, Down, Up, Down, Down, Down, Up, Down

    Bm     A     D     A    Bm       A
e|--2-2---x-x---2~-2--x-x---2-2~-2---x---------|
B|--3-3---2-2---3~-3--2-2---3-3~-3---2~--------|
G|--4-4---2-2---2~-2--2-2---4-4~-4-0-2~--------|
D|--4-4---2-2---0~-0--2-2---4-4~-4-0-2~--------|
A|--2-2---0-0---------0-0---2-2~-2-0-0~--------|
E|---------------------------------------------|

____________________________________________________________________________

Chorus: 0:40 - 1:04

(0:40 - 0:49) Riff 3

Strum Pattern: Down, Down, Up, Up, Down, Up (Repeat Strumming from Riff 3 to Riff 4)

         G             A             Bm            D7
e|--3-3-3~-3-3-3--x-x-x--x-x-x--2-2-2~-2-2-2--2-2-2~-2-2-2---|
B|--3-3-3~-3-3-3--2-2-2~-2-2-2--3-3-3~-3-3-3--1-1-1~-1-1-1---|
G|--0-0-0~-0-0-0--2-2-2~-2-2-2--4-4-4~-4-4-4--2-2-2~-2-2-2---|
D|--0-0-0~-0-0-0--2-2-2~-2-2-2--4-4-4~-4-4-4--0-0-0~-0-0-0---|
A|--2-2-2~-2-2-2--0-0-0~-0-0-0--2-2-2~-2-2-2-----------------|
E|--3-3-3~-3-3-3---------------------------------------------|

(0:49 - 0:57) Riff 4

         G             A             Bm          D#7dim
e|--3-3-3~-3-3-3--x-x-x--x-x-x--2-2-2~-2-2-2--2-2-2~-2-2-2---|
B|--3-3-3~-3-3-3--2-2-2~-2-2-2--3-3-3~-3-3-3--1-1-1~-1-1-1---|
G|--0-0-0~-0-0-0--2-2-2~-2-2-2--4-4-4~-4-4-4--2-2-2~-2-2-2---|
D|--0-0-0~-0-0-0--2-2-2~-2-2-2--4-4-4~-4-4-4--1-1-1~-1-1-1---|
A|--2-2-2~-2-2-2--0-0-0~-0-0-0--2-2-2~-2-2-2-----------------|
E|--3-3-3~-3-3-3---------------------------------------------|

(0:57 - 1:04) Riff 5

Strum Pattern: Down, Down, Up, Up, Down, Up, Down, Down, Up, Up, Down, Up, Down, Down, 
Up, Down, Up, Down

         G             A             Bm
e|--3-3-3~-3-3-3--x-x-x--x-x-x--2-2-2~-2-2-2-2~-|
B|--3-3-3~-3-3-3--2-2-2~-2-2-2--3-3-3~-3-3-3-3~-|
G|--0-0-0~-0-0-0--2-2-2~-2-2-2--4-4-4~-4-4-4-4~-|
D|--0-0-0~-0-0-0--2-2-2~-2-2-2--4-4-4~-4-4-4-4~-|
A|--2-2-2~-2-2-2--0-0-0~-0-0-0--2-2-2~-2-2-2-2~-|
E|--3-3-3~-3-3-3--------------------------------|

(0:57 - 1:04) Riff 5 (Guitar 2)

e|-------7~-5~--2~---|
B|--7/8~----5~--3~---|
G|----------6~--4~---| <- Strum the chords slowly.
D|----------7~--4~---|
A|--6/7~--------2~---|
E|-------------------|

______________________________________________________________________

2nd Verse: 1:04 - 1:22

(1:04 - 0:15) Riff 1 (x2)

Strum Pattern: Down, Up, Down, Up, Down, Up, Down, Up

    Bm     A        D
e|--2-2---x-x---2~-2--2~-2--|
B|--3-3---2-2---3~-3--3~-3--|
G|--4-4---2-2---2~-2--2~-2--|
D|--4-4---2-2---0~-0--0~-0--|
A|--2-2---0-0---------------|
E|--------------------------|

(1:14 - 1:22) Riff 6

Strum Pattern: Down, Up, Down, Up, Down, Up, Down, Up, Down, Down, Down

    Bm     A     D     A    Bm    A
e|--2-2---x-x---2~-2--x-x---2~-2--x---------|
B|--3-3---2-2---3~-3--2-2---3~-3--2~--------|
G|--4-4---2-2---2~-2--2-2---4~-4--2~--------|
D|--4-4---2-2---0~-0--2-2---4~-4--2~--------|
A|--2-2---0-0---------0-0---2~-2--0~--------|
E|------------------------------------------|

_________________________________________________________________________

2nd Chorus: 1:22 - 1:47

(1:22 - 1:31) Riff 3

Strum Pattern: Down, Down, Up, Up, Down, Up (Repeat Strumming from Riff 3 to Riff 4)

         G             A             Bm            D7
e|--3-3-3~-3-3-3--x-x-x--x-x-x--2-2-2~-2-2-2--2-2-2~-2-2-2---|
B|--3-3-3~-3-3-3--2-2-2~-2-2-2--3-3-3~-3-3-3--1-1-1~-1-1-1---|
G|--0-0-0~-0-0-0--2-2-2~-2-2-2--4-4-4~-4-4-4--2-2-2~-2-2-2---|
D|--0-0-0~-0-0-0--2-2-2~-2-2-2--4-4-4~-4-4-4--0-0-0~-0-0-0---|
A|--2-2-2~-2-2-2--0-0-0~-0-0-0--2-2-2~-2-2-2-----------------|
E|--3-3-3~-3-3-3---------------------------------------------|

(1:31 - 1:39) Riff 4

         G             A             Bm          D#7dim
e|--3-3-3~-3-3-3--x-x-x--x-x-x--2-2-2~-2-2-2--2-2-2~-2-2-2---|
B|--3-3-3~-3-3-3--2-2-2~-2-2-2--3-3-3~-3-3-3--1-1-1~-1-1-1---|
G|--0-0-0~-0-0-0--2-2-2~-2-2-2--4-4-4~-4-4-4--2-2-2~-2-2-2---|
D|--0-0-0~-0-0-0--2-2-2~-2-2-2--4-4-4~-4-4-4--1-1-1~-1-1-1---|
A|--2-2-2~-2-2-2--0-0-0~-0-0-0--2-2-2~-2-2-2-----------------|
E|--3-3-3~-3-3-3---------------------------------------------|

(1:39 - 1:47) Riff 5

Strum Pattern: Down, Down, Up, Up, Down, Up, Down, Down, Up, Up, Down, Up, Down, Down, 
Up, Down, Up, Down
[ Tab from: http://www.guitaretab.com/s/sponge-cola/210730.html ]
         G             A       Bm
e|--3-3-3~-3-3-3--x-x-x--x-x-x--2--|
B|--3-3-3~-3-3-3--2-2-2~-2-2-2--3--|
G|--0-0-0~-0-0-0--2-2-2~-2-2-2--4--|
D|--0-0-0~-0-0-0--2-2-2~-2-2-2--4--|
A|--2-2-2~-2-2-2--0-0-0~-0-0-0--2--|
E|--3-3-3~-3-3-3-------------------|

(1:39 - 1:47) Riff 5 (Guitar 2)

e|-------7~-5~--2~---|
B|--7/8~----5~--3~---|
G|----------6~--4~---| <- Strum the chords slowly.
D|----------7~--4~---|
A|--6/7~--------2~---|
E|-------------------|

_________________________________________________________________________

Bridge: 1:47 - 2:14

(1:47 - 2:01) Riff 7

Strumming Pattern: Down, Down, Up, Down, Down, Up, Up, Down, Up, Up, Down, Up, Up, Down

    Bm                A                     G             Bm                  A
e|--2-2---x--x-x-x-x-x--x-x-x--x-x--3-3-3~-3-3-3--2-2-2~-2-2-2--x-x-x--x-x-x-x--x-x--x-x-x--|
B|--3-3-0-2--2-2-2-2-2--2-2-2--2-2--3-3-3~-3-3-3--3-3-3~-3-3-3--2-2-2--2-2-2-2--2-2--2-2-2--|
G|--4-4-0-2--2-2-2-2-2--2-2-2--2-2--0-0-0~-0-0-0--4-4-4~-4-4-4--2-2-2--2-2-2-2--2-2--2-2-2--|
D|--4-4-0-2--2-2-2-2-2--2-2-2--2-2--0-0-0~-0-0-0--4-4-4~-4-4-4--2-2-2--2-2-2-2--2-2--2-2-2--|
A|--2-2-0-0--0-0-0-0-0--0-0-0--0-0--2-2-2~-2-2-2--2-2-2~-2-2-2--0-0-0--0-0-0-0--0-0--0-0-0--|
E|----------------------------------3-3-3~-3-3-3--------------------------------------------|

(2:01 - 2:14) Riff 8

Chorus Strum Pattern: Down, Down, Up, Up, Down, Up, Down, Down, Up, Up, Down, Up, Down, 
Up, Up, Down, Up, Down
Then for the last part, Up, down, Up, down

         G             Bm            G             Bm            A
e|--3-3-3~-3-3-3--2-2-2~-2-2-2--3-3-3~-3-3-3--2-2-2~-2-2-2--x-x-x--x-x-x-x--|
B|--3-3-3~-3-3-3--3-3-3~-3-3-3--3-3-3~-3-3-3--3-3-3~-3-3-3--2-2-2~-2-2-2-2--|
G|--0-0-0~-0-0-0--4-4-4~-4-4-4--0-0-0~-0-0-0--4-4-4~-4-4-4--2-2-2~-2-2-2-2--|
D|--0-0-0~-0-0-0--4-4-4~-4-4-4--0-0-0~-0-0-0--4-4-4~-4-4-4--2-2-2~-2-2-2-2--|
A|--2-2-2~-2-2-2--2-2-2~-2-2-2--2-2-2~-2-2-2--2-2-2~-2-2-2--0-0-0~-0-0-0-0--|
E|--3-3-3~-3-3-3----------------3-3-3~-3-3-3--------------------------------|

_____________________________________________________________________________

Pre-Solo: 2:14 - 2:16

          G
e|---------------3~---|
B|----------3~---3~---|
G|-------4~---4~------|
D|-----5~-------------|
A|--------------------|
E|--3~----------------|

_____________________________________________________________________________

For the solo, you can use both Fingerstyle or Guitar Picking

Solo: 2:16 - 2:34 (Guitar 2)

e|-------------------7-5---5~\----------------7---5-5~\--|
B|----7h8p7----------7-5-8-5~\----7h8p7-------7---5-5~\--|
G|--7-------9-9/11---7-6---7~\--7-------9-7---7-6---7~\--|
D|-----------------9------------------------9------------|
A|-------------------------------------------------------|
E|-------------------------------------------------------|


e|---------------10----12----14-15-14-10-9\------10-12p10-----------------|
B|-----------10-----10----10-------------------12~--------12/14~-----14~--|
G|--7-9-9/11----9---------------------------/12~----------12/14~---14~----|
D|---------------------------------------------------------------14~------|
A|------------------------------------------------------------------------|
E|------------------------------------------------------------------------|

(2:16 - 2:25) Riff 1 (x2)

Strum Pattern: Down, Up, Down, Up, Down, Up, Down, Up

    Bm     A        D
e|--2-2---x-x---2~-2--2~-2--|
B|--3-3---2-2---3~-3--3~-3--|
G|--4-4---2-2---2~-2--2~-2--|
D|--4-4---2-2---0~-0--0~-0--|
A|--2-2---0-0---------------|
E|--------------------------|

(2:25 - 2:34) Riff 2

Strum Pattern: Down, Up, Down, Up, Down, Up, Down, Up, Down, Down

    Bm     A     D     A    Bm  A
e|--2-2---x-x---2~-2--x-x---2~--x---------|
B|--3-3---2-2---3~-3--2-2---3~--2~--------|
G|--4-4---2-2---2~-2--2-2---4~--2~--------|
D|--4-4---2-2---0~-0--2-2---4~--2~--------|
A|--2-2---0-0---------0-0---2~--0~--------|
E|----------------------------------------|

____________________________________________________________________________

Last Chorus: 2:34 - 2:59

(2:34 - 2:43) Riff 9

Strum Pattern: Down, Down, Down, Down, Down, Down, Up

    G   A   Bm    D7
e|--3~--x---2~--2~--2-2---|
B|--3~--2~--3~--1~--1-1-0-|
G|--0~--2~--4~--2~--2-2-0-|
D|--0~--2~--4~--0~--0-0-0-|
A|--2~--0~--2~----------0-|
E|--3~--------------------|

(2:43 - 2:52) Riff 4

Strum Pattern: Down, Down, Up, Up, Down, Up (Repeat until the end of Riff 4)

         G             A             Bm          D#7dim
e|--3-3-3~-3-3-3--x-x-x--x-x-x--2-2-2~-2-2-2--2-2-2~-2-2-2---|
B|--3-3-3~-3-3-3--2-2-2~-2-2-2--3-3-3~-3-3-3--1-1-1~-1-1-1---|
G|--0-0-0~-0-0-0--2-2-2~-2-2-2--4-4-4~-4-4-4--2-2-2~-2-2-2---|
D|--0-0-0~-0-0-0--2-2-2~-2-2-2--4-4-4~-4-4-4--1-1-1~-1-1-1---|
A|--2-2-2~-2-2-2--0-0-0~-0-0-0--2-2-2~-2-2-2-----------------|
E|--3-3-3~-3-3-3---------------------------------------------|

(2:52 - 2:59) Riff 5

Strum Pattern: Down, Down, Up, Up, Down, Up, Down, Down, Up, Up, Down, Up, Down, Down, 
Up, Down, Up, Down

         G             A             Bm
e|--3-3-3~-3-3-3--x-x-x--x-x-x--2-2-2~-2-2-2-2~-|
B|--3-3-3~-3-3-3--2-2-2~-2-2-2--3-3-3~-3-3-3-3~-|
G|--0-0-0~-0-0-0--2-2-2~-2-2-2--4-4-4~-4-4-4-4~-|
D|--0-0-0~-0-0-0--2-2-2~-2-2-2--4-4-4~-4-4-4-4~-|
A|--2-2-2~-2-2-2--0-0-0~-0-0-0--2-2-2~-2-2-2-2~-|
E|--3-3-3~-3-3-3--------------------------------|

(2:52 - 2:59) Riff 5 (Guitar 2)

e|-------7-7~--5~--2~---|
B|--7/8~-8-8~--5~--3~---|
G|-------------6~--4~---| <- Strum the chords slowly.
D|-------------7~--4~---|
A|--6/7~-----------2~---|
E|----------------------|

_______________________________________________________________________

(2:59 - 3:14) Outro (Guitar 2)

e|-------7~-5~--5~------|
B|--7/8~----5~---3~-----|
G|----------6~----4~----| <- Strum the chords slowly.
D|----------7~-----2~---|
A|--6/7~----------------|
E|----------------------|


************************************

| /   slide up
| \   slide down
| h   hammer-on
| p   pull-off
| ~   Let it ring
| x   Mute note

************************************
Related for Di Na Mababawi tab
Di Na Mababawi chords by Sponge Cola