Song name
# A B C D E F G H I J K L M N O P Q R S T U V W X Y Z

Sponge Cola - Di Na Mababawi tab

This would be the easiest version. I fixed the solo part as well, because none of 
those listed were right for me. 
As for the strumming you should learn it yourself by listening to the song.

Intro-

e|-5~-------------|
B|--3~------------|
G|---4~-----------|
D|----4~----------|
A|-----2~---------|
E|----------------|

All Verses-Bm A D 3x
           Bm A

Chorus-G A Bm D7
       G A Bm B7
       G A Bm

Bridge-Bm 3 Strums
       A G Bm
       A G Bm 
       G Bm A

Solo(Rhythm)- G ...  Bm A D 3x Bm A
Solo(Lead) 
e|-------------3~--|---------------------------5---5--|--------------|
B|--------3----3~--|---7h8p7-7---7--------7----5---5--|---7h8p7-7----|
G|------2---2------|--7--------9----------7--6---7----|--7--------9-7|
D|----3------------|--------------------9-------------|--------------|
A|--3--------------|----------------------------------|--------------|
E|3~---------------|----------------------------------|--------------|

e|------5--5-----------------10-----12------14-15-14--10-9----|
B|--7---5--5---------7-10-------10-----10---15-15-15--10-10---|
G|--7-6-7--------7-9------7-----------------------------------|
D|9-----------------------------------------------------------|
A|------------------------------------------------------------|
E|------------------------------------------------------------|

e|-------10~--12-10-------------------------------------------|
B|----12------------12s14------14~----------------------------|
G|-12---------------12s14----14~------------------------------|
D|-------------------------14~--------------------------------|
A|------------------------------------------------------------|
E|------------------------------------------------------------|


Chorus-G A Bm D7
       G A Bm B7
       G A Bm
       G A
end With

e|-5~-------------|
B|--3~------------|
G|---4~-----------|
D|----4~----------|
A|-----2~---------|
E|----------------|

Lyrics~
       
Ngayo'y aking inuunawang pilit
Mga pagkukulang kong iyong ginigiit
Sana'y malaman mo na tanging ikaw lamang
Ang aking iniintindi

Nakatanim pa sa'king ala-ala
Pangako mong mananatili ka
Kaya't paglisan mo'y naiwan ang pusong ito
Na ngayo'y bitin na bitin

Chorus:

'Di mo na mababawi iniwang sakit
Sa mga salitang binitiwan mo
Hindi ba't ikaw na rin ang nagpasya, nagtakda
At siyang unang umiwas
Bakit nga ba ako 'yong pinaasa?

Nasa aking guniguni malamig mong tinig
Kasabay ng hanging na dumarampi
Na para bang ika'y nariyan sa aking paligid
Tahimik na nagmamasid

*Repeat Chorus

Nahulog na'ng mga ulap, buwan at araw, mga bituwin
Ang ginugol na panaho'y na saan? (panaho'y na saan)
'Di ba't sayang naman? (Di ba't sayang naman)
Giliw yeah yeah yeah yeah

Ngunit di mo na mababawi iniwang sakit
Sa mga salitang binitiwan mo
Hindi ba't ikaw na rin ang nagpasya, nagtakda
At siyang unang umiwas
Bakit nga ba ako 'yong pinaasa?
Bakit nga ba ako 'yong pinaasa?
Tap to rate this tab
# A B C D E F G H I J K L M N O P Q R S T U V W X Y Z