Song name
# A B C D E F G H I J K L M N O P Q R S T U V W X Y Z

Sponge Cola - Makapiling Ka tab

song title: makapiling ka
by: sponge cola
tab by: craftoon
email add: klavenders13@yahoo.com
cp #: 09236875447
message: inautan ako ng 3 araw bago ko nagawa yung tab na 'to, hindi ko 'to
         kinopya, sefra ko 'to with effort also, so sana ma enjoy nyo, for
         comment email me or tcxt me

(intro) riff 1:
e|----------------5-5-----------------|
B|--8--8----3-3---5-5-----------------|
G|--9--9----4-4---5-5----8-10-8-------|
D|--10-10---5-5---------10-10-10------|
A|--10-10---5-5---------10-10-10------|
E|------------------------------------|
   riff 2:
e|------------0-------------------|
B|--8--8---3----0----1-1---1-1----|
G|--9--9---4------0--2-2---2-2----|
D|--10-10--5---------2-2---3-3----|
A|--10-10--5---------------3-3----|
E|--------------------------------|

(1)

   C-G-Am-F
Pagdilat..
               C  G     Am    F
Ikaw agad ang hinahanap sa umaga
C      G      Am       F
Nasaan ka na? malayo ka pa ba?
C         G           Am   F
Kay tagal ng iyong pagbabalik

(2)
C      G Am F
Minsan
C      G      Am   F
Nahuhuli ko ang sariling nakangiti
 C         G       Am          F
Malayo ang tingin, malalim ang isip
 C         G         Am   F-F(*)
Kailangang magkita muli

(*)
e|------------------------|
B|-5-6-5-3-1p0-1----------|
G|------------------------|
D|------------------------|
A|------------------------|
E|------------------------|

Chorus:}
   C      G    Am       F
Sa pagpatak ng bawat sandali (bawat sandali)
C       G          Am        F
Nakatikom lagi ang aking mga labi (aking mga labi)
C     G     Am        F
Inaaliw ang sarili sa musika (sarili sa musika)
C-G  Am-F            C-G Am-F
Nananabik makapiling ka
           C-G Am-F
Makapiling ka


(3):
(Do Verse Chords)
Pagdungaw, meron kayang mabuting balitang darating
Inihanda ang pag ngiti
Kasabay ng pagsambit sa ngalan mo
Pagdating ng sandali
(*)
e|------------------------|
B|-5-6-5-3-1p0-1----------|
G|------------------------|
D|------------------------|
A|------------------------|
E|------------------------|


(repeat chorus)

Bridge:}

 G         F      G       F
Lalong lumalapit araw ng pagsapit
G       F        G       F
Di magkukulang, laging nagaabang

(repeat chorus)
(repeat chorus 1st 2 lines only (2x))
makapiling ka(3x)..
(repeat intro riff 1)

   C-G-Am-F
Pagdilat..
               C  G     Am    F
Ikaw agad ang hinahanap sa umaga...

"to all sigma vendetta phi in brgy. calumpang and san juan molo iloilo city and also to 
one i miss so much"
Tap to rate this tab
# A B C D E F G H I J K L M N O P Q R S T U V W X Y Z