Song name
# A B C D E F G H I J K L M N O P Q R S T U V W X Y Z

Sponge Cola - Makapiling Ka tab

-----------------------------------------------------------------------------
			     MAKAPILING KA - Sponge Cola
-----------------------------------------------------------------------------
Tabbed by: Jomar Ebuenga
Email: th0inkz@yahoo.com

Tuning: Half-Step Down (E Flat)

Intro:

e|-----x----0-0---8--8----------------------------------|
B|--8--8----3-3---10-10------10-8-----------------------|
G|--9--9----4-4---9--9----7--7--9-----------------------|
D|--10-10---5-5---x--x----9--9--------------------------|
A|--10-10---5-5-----------10-10-------------------------|
E|--8---------------------------------------------------|

e|--0-0---3--------0-0--0-----0-------------------------|
B|--1-1---3-3------1-1--1-1-3---------------------------|
G|--0-0---0---0----2-2--2-------------------------------|
D|--2-2---0-----0--2-2--2-------------------------------|
A|--3-3---2--------0-0--0-------------------------------|
E|--------3---------------------------------------------|

Stanza:

Pagdilat...

e|--0--0--0--0------------------------------------------|
B|--1--3--1--1------------------------------------------|
G|--0--4--2--2------------------------------------------|
D|--2--5--2--3------------------------------------------|
A|--3--5--0--3------------------------------------------|
E|------------------------------------------------------|

before chorus...

e|-----0-1-0--------------------------------------------|
B|--3--------3------------------------------------------|
G|--4----------1p0---0----------------------------------|
D|--5--------------2------------------------------------|
A|--5---------------------------------------------------|
E|--3---------------------------------------------------|

Chorus:

e|--0---x---8-------------------------------------------|
B|--1---8---10--8---------------------------------------|
G|--0---0---9---0---------------------------------------|
D|--2---9---x---7---------------------------------------|
A|--3---10------8---------------------------------------|
E|------------------------------------------------------|

e|--0---0---0---0---------------------------------------|
B|--1---3---1---1---------------------------------------|
G|--0---4---2---2---------------------------------------|
D|--2---5---2---3---------------------------------------|
A|--3---5---0---3---------------------------------------|
E|------------------------------------------------------|

Bridge:

e|--3---1-----------------------------------------------|
B|--3---1-----------------------------------------------|
G|--4---2-----------------------------------------------|
D|--5---3-----------------------------------------------|
A|--5---3-----------------------------------------------|
E|--3---1-----------------------------------------------|





************************************

| p   pull-off
| x   Mute note

************************************
Tap to rate this tab
 
# A B C D E F G H I J K L M N O P Q R S T U V W X Y Z