Sponge Cola - Makapiling Ka tab

e|---------------------------|
B|--44-----------------------|
G|--44--44--1616--11-13-11---|
D|------44--1616--11-13-11---| _____
A|--22------1414--9--11-9----|     |
E|------22-------------------|     |
                                   |
e|-------------------|             |
B|--44---------------|             |------- this goes out to most of the song
G|--44--44--1616-16--|             |
D|------44--1616-16--|             |
A|--22------1414-14--|             |
E|------22-----------| ____________|

e|-----------------------|
B|------4-6-4------------|
G|--11--------6-5-6-5----|
D|--11(8x)------------6--| ----------- do for pre-chorus
A|--9--------------------|
E|--9--------------------|
Tap to rate this tab
 
# A B C D E F G H I J K L M N O P Q R S T U V W X Y Z