Song name
# A B C D E F G H I J K L M N O P Q R S T U V W X Y Z

Sponge Cola - Tuliro tab

    (::[]::):Tuliro by Spongcola:(::[]::)

  e2 talaga tama 2...enjoy!^^

Solo:
            
e|----------9-9-9--11-9----------15b-14-13-11-13-14-16-18---------|
B|---11--12-------------12-11-------------------------------------|
G|----------------------------11b---------------------------------|
D|----------------------------------------------------------------|
A|----------------------------------------------------------------|
E|----------------------------------------------------------------|


e|-15-14----14--------------------------14-13-13---------14-16-18-16-14s---|
B|-------14-------------------------------------14-16-18-------------------|
G|-------------------15-17-15-15h17-15-------------------------------------|
D|-------------14-16-------------------------------------------------------|
A|-------------------------------------------------------------------------|
E|-------------------------------------------------------------------------|

hahha  e2 n ung lead solo hahaha   enjoy^^
                                                               03/08/11
                                                   ladees_colonel@yahoo.com
Tap to rate this tab
 
# A B C D E F G H I J K L M N O P Q R S T U V W X Y Z