Song name
# A B C D E F G H I J K L M N O P Q R S T U V W X Y Z

Sponge Cola - Tambay tab

Sponge Cola - tambay
Transcribed by: slycute_kaau

video of me playing:
http://www.youtube.com/watch?v=3JrFcufoajg&feature=related

Standard tuning

intro/verse (1st guitar)
     Ed        Bd         F          Gm          Ed        Bd         F      F 
e-------------------------------------------l----------------------------------1----l
B-----4---------3----------1----------3-----l-----4--------3---------1-----------1--l
G-------3---------3----------2----------3---l-------3--------3---------2------------l
D---1--------------------3----------5-------l---1------------------3---------3------l
A-------------1-----------------------------l------------1--------------------------l
E-------------------------------------------l---------------------------------------l


intro (2nd guitar)
e---------------------6-----6-----------------------------------------------------l
B-------------6-6-6/8---8-6-------------------------------------------------------l
G---------5h7---------------------------------------------------------------------l
D---------------------------------------------------------------------------------l
A---------------------------------------------------------------------------------l
E---------------------------------------------------------------------------------l

intro chords(with distortion):
Ed-Bd-F-Gm \____repeat2x
Ed-Bd-F-F  /

verse:
Ed-Bd-F-Gm \____repeat2x
Ed-Bd-F-F  /

ref:
Cm-Ed - 2x
F-G#

do this before chorus
e----------------------------------------------l
B----------------------------------------------l
G----------------------------------------------l
D---------------3h5p3h5/8----------------------l
A-----------4h6--------------------------------l
E-------4h6------------------------------------l

chorus:
Ed-Bd-F-Gm 
Ed-Bd-F-F  
Ed-Bd-F-Gm 
Ed-F



first solo Ed-Bd-F-Gm                                 Ed-Bd-F-F 

e-----------------------------------l---17^(half-bend)-17-15-13-15------------------l
B---16-15-------------15------------l------------------------------13h15-15\13-11~--l
G---------17-15----------15---------l-----------------------------------------------l
D---------------15h17-------17-15\--l-----------------------------------------------l
A-----------------------------------l-----------------------------------------------l
E-----------------------------------l-----------------------------------------------l

repeat verse

main solo (do intro chords)
e---------------------------------------------------------------------------------l
B---13^(full-bend)-13-11~----11~----11----11h13-15--------------------------------l
G------------------------12-----12----12------------------------------------------l
D---------------------------------------------------------------------------------l
A---------------------------------------------------------------------------------l
E---------------------------------------------------------------------------------l

e---17^(half-bend)-17-15-13-15----------------------------------------------------l
B------------------------------13h15-15\13-11~------------------------------------l
G---------------------------------------------------------------------------------l
D---------------------------------------------------------------------------------l
A---------------------------------------------------------------------------------l
E---------------------------------------------------------------------------------l

e---------------------------------------------------------------------------------l
B--------------------------------11-11----11h13-15--------------------------------l
G-----------------------10-10/12-------12-----------------------------------------l
D-------8-8/10-12-10/12-----------------------------------------------------------l
A---/10---------------------------------------------------------------------------l
E---------------------------------------------------------------------------------l

e---------------------------------------------------------------------------------l
B---13^v(full-bend-&-release-2x)-11----11--/16-15-18------------------------------l
G-----------------------------------12---------------17^v(full-bend-&-release)-15-l
D---------------------------------------------------------------------------------l
A---------------------------------------------------------------------------------l
E---------------------------------------------------------------------------------l

e---T13p6-------T13p6h8----T18p11--------T18p11h13---T18p13-T18p13-T18p15p13------l
B---------T13p6-------------------T18p11------------------------------------------l
G---------------------------------------------------------------------------------l
D---------------------------------------------------------------------------------l
A---------------------------------------------------------------------------------l
E---------------------------------------------------------------------------------l

e---------------------------18----------------------------------------------------l
B---15p13----13-15p13-13/18-------------------------------------------------------l
G---------15----------------------------------------------------------------------l
D---------------------------------------------------------------------------------l
A---------------------------------------------------------------------------------l
E---------------------------------------------------------------------------------l

after solo
(eto ang ating kwento...)
 Ed-F-G#-Bd

chorus (change key)
F-C-G-Am  \
F-C-G-G    \__repeat 2x
F-C-G-Am   /
F-G       /

End in
Bd
Tap to rate this tab
 
# A B C D E F G H I J K L M N O P Q R S T U V W X Y Z