Guitaretab - guitar tabs
Song name
# A B C D E F G H I J K L M N O P Q R S T U V W X Y Z

Sponge Cola - Kay Tagal Kitang Hinintay tab

Kay Tagal Kitang Hinintay
Sponge Cola
Tabbed by: Greg Magoncia

Verse

e----4-4-4-4-4---7-7-7-7-7------------------------------|
B----------------------------5-5-5-5-5----4-4-4-4-4-----|
D-------------------------------------------------------|
G---2-2-2-2-2---6-6-6-6-6-------------------------------|
A---------------------------4-4-4-4-4----2-2-2-2-2------|
E-------------------------------------------------------|

[ Tab from: http://www.guitaretab.com/s/sponge-cola/295700.html ]
e-------------------------------------------------------|
B---2-2-2-2-2----0-0-0-0-0----5-5-5-5-5----4-4-4-4-4----|
D-------------------------------------------------------|
G---------------2-2-2-2-2-------------------------------|
A--0-0-0-0-0-----------------4-4-4-4-4----2-2-2-2-2-----|
E-------------------------------------------------------|
 
Pre-Chorus

e-------------------------------------------------------|
B-----2-2-2-2-2-----4-4-4-4-4---------------------------|
D-------------------------------------------------------|(2x)
G-------------------------------------------------------|
A----0-0-0-0-0-----2-2-2-2-2----------------------------|
E-------------------------------------------------------|


Chorus
 E - Abm - C#m - Bm - A - E - Abm - Bm

Verse
 E - Abm - C#m - Bm - A - E - Abm - Bm

Pre- Chorus
 A - Bm (2x)

Related for Kay Tagal Kitang Hinintay tab
×
Best way to learn
"Kay Tagal Kitang Hinintay"