Song name
# A B C D E F G H I J K L M N O P Q R S T U V W X Y Z

Sponge Cola - Kay Tagal Kitang Hinintay tab

----------------------------------------------------------------------------
			     KAY TAGAL KITANG HININTAY - Sponge Cola
----------------------------------------------------------------------------
Tabbed by: Jugmot
E-mail: jugmot@yahoo.com (Add nyo ko sa Facebook)
Tuning:  Standard Tuning

======> Kapa ko lang to guys...sa tingin ko tamang tama to...nakita ko mismo kay Armo..


Verse:

      F                Am             Dm        C
|---------------------------------------------------------------------------|
|--10-10-10-10-10----13--13--13--13--13--6-6-6-6-6---5-5-5-5-5--------------|
|---------------------------------------------------------------------------|
|---------------------------------------------------------------------------|
|-8-8-8-8-8---12--12--12--12--12---5--5--5--5--5---3--3-3-3-----------------|
|---------------------------------------------------------------------------|


      Bb           F          Dm         C
|----------------------------------------------------------------------|
|--3-3-3-3-3---1-1-1-1-1---6-6-6-6-6---5-5-5-5-5-----------------------|
|----------------------------------------------------------------------|
|-------------3-3-3-3-3------------------------------------------------|
|-1-1-1-1-1---------------5-5-5-5-5---3-3-3-3-3------------------------|
|----------------------------------------------------------------------|


      E                G#m             C#m        B
|--------------------------------------------------------------------|
|--9-9-9-9-9----12--12--12--12--12--5-5-5-5-5---4-4-4-4-4------------|
|--------------------------------------------------------------------|
|--------------------------------------------------------------------|
|-7-7-7-7-7---11--11--11--11--11---4-4-4-4-4---2-2-2-2-2-------------|
|--------------------------------------------------------------------|


      A           E          C#m         B
|---------------------------------------------------------------|
|--2-2-2-2-2---0-0-0-0-0---5-5-5-5-5---4-4-4-4-4----------------|
|---------------------------------------------------------------|
|---------------------------------------------------------------|
|-0-0-0-0-0---2-2-2-2-2---4-4-4-4-4---2-2-2-2-2-----------------|
|---------------------------------------------------------------|


REFRAIN:


      A            B        C#m         B
|-----------------------------------------------------------|
|---2-2-2-2-2---4-4-4-4-4---5-5-5-5-5---4-------------------|
|-----------------------------------------------------------|
|-----------------------------------------------------------|
|-02-0-0-0-0---2-2-2-2-2---4-4-4-4-4---2--------------------|
|-----------------------------------------------------------|



CHORUS: ung sa aprt na 'to, strum nyo na lang na mejo mabagal... di ko pa mkuha ung
tamang plucking eh..




E                C#m
Parang isang panaginip
        A	   B
Ang muling mapagbigyan
A	           E
Tayo’y muling magkasama
    C#m           B
Ang dati ay balewala



INSTRUMENTAL: E-G#m-C#m-B



VERSE 2:




    E                    G#m
Nagkita rin ang ating landas
           C#m
Wala nang iba
                     B              A
Akong hinihiling kundi ika’y pagmasdan
		        E
Mundo ko ang ‘yong niyanig
           C#m                   B
O anong ligayang ‘kay sumama sa akin



REFRAIN:



A	          B
Nais ko lang humiling
     C#m             B
Sa saliw nang iyong tinig



CHORUS:


E                C#m
Parang isang panaginip
        A	    B
Ang muling mapagbigyan
A	            E
Tayo’y muling magkasama

GAWIN TO SA PART NA 'TAYO'Y MULING MAGKASAMA", RYT AFTER THE RIFF,CHORD "E".GANITO RIN
UNG SA  LAST CHORUS. PKINGGAN NYO UNG SONG PRA SA TIMING.

|----------------|
|----------------|
|----------------|
|--6/7--6--4-----|
|----------------|
|----------------|


        C#m            B
Ang dati ay balewala
E	       C#m              A
Panatag ng kalooban ko ang ika’y
             B
Kapiling ko na
    A                     B
O kay tagal kitang hinintay
    A	                 B
O kay tagal kitang hinintay………


ADLIB:kapa ko lng po ito....kya psensya na kung me mpansin kaung mali...di pa dn to
tpos..hirap e...hehetry qng buuin to..



|----------------------------14-11-12-12---------------------|
|---------7--9-10--12-12-12--------------12/14-12------------|
|--/9-9-9----------------------------------------11/13-11----|
|------------------------------------------------------------|
|------------------------------------------------------------|
|------------------------------------------------------------|


|--------------------12b-------|
|-----------------9------------|
|-----9-11-9-8--9--------------|   hanggang dito lng ung alam ko e..sensya na
|-9h11-------------------------|
|------------------------------|
|------------------------------|


BRIDGE:


    A                  B
Ligayang noo’y nasa huli
C#m		       B
Sambit nang ‘yong mga labi


CHORUS: ( sa part na to,sang bagsak lang bwat chord)



E                C#m
Parang isang panaginip
       A	 B
Ang muling mapagbigyan
A	   E
Tayo’y muling magkasama
     C#m          B
Ang dati ay balewala
                  E
Ang dati ay balewala

(sa tapat na to,tuloy uloy na ung strum)

                  C#m
Parang isang panaginip
       A           B
Ang muling mapagbigyan
A                   E
Tayo’y muling magkasama
     C#m          B
Ang dati ay balewala
E	       C#m            A
Panatag ng kalooban ko ang ika’y
	     B
Kapiling ko na

        A                B
O kay tagal kitang hinintay
	A	          B
O kay tagal kitang hinintay….
Tap to rate this tab
 
# A B C D E F G H I J K L M N O P Q R S T U V W X Y Z