Song name
# A B C D E F G H I J K L M N O P Q R S T U V W X Y Z

Sponge Cola - Kay Tagal Kitang Hinintay tab

Title: Kay Tagal Kitang Hinintay
Artist: Sponge Cola
Tabbed by: Rence Liwanag

Original key: F(Ignore it)

When Sponge Cola recorded this song they used Half-Step Down Standard Tuning.

But we are going to use the E-B-G-D-A-E. Same sound.

Verse:
   E                      G#m  
   Hawakan mo ang aking kamay            At tayong dalawa'y
e|--------------------------------------------------------------|
b|--9---9---9---9---9------12-----12-----12-----12-----12-------|
g|---9---9---9---9---9-------13-----13-----13-----13-----13-----|
d|--------------------------------------------------------------|
a|-7---7---7---7---7---7-11-----11-----11-----11-----11------11-|
e|--------------------------------------------------------------|
   
    C#m                   B 
    Maghahasik ng kali-   gayahan          Bi-
e|---------------------------------------------|
b|--5---5---5---5---5------4---4---4---4---4---|
g|---6---6---6---6---6------4---4---4---4---4--|
d|---------------------------------------------|
a|-4---4---4---4---4---4--2---2---2---2---2---2|
e|---------------------------------------------|


   E                        G#m
  -tawan mo'ng unang salita                 Ako ay handa-----
e|--------------------------------------------------------------|
b|--9---9---9---9---9------12-----12-----12-----12-----12-------|
g|---9---9---9---9---9-------13-----13-----13-----13-----13-----|
d|--------------------------------------------------------------|
a|-7---7---7---7---7---7s11-----11-----11-----11-----11-----11--|
e|--------------------------------------------------------------|

   C#m                  B
     ng tumapak sa lu-  pa---         Li-
e|--------------------------------------------|
b|--6---6---6---6---6----4---4---4---4---4----|
g|---6---6---6---6---6----4---4---4---4---4---|
d|--------------------------------------------|
a|-4---4---4---4---4--4-2---2---2---2---2---2-|
e|--------------------------------------------|

Pre Chorus:
   A                    B
   -gaya mo'y nasa hu--li---               Sam-
e|---------------------------------------------|
b|--2---2---2---2---2----4---4---4---4---4-----|
g|---2---2---2---2---2----4---4---4---4---4----|
d|---------------------------------------------|
a|-0---0---0---0---0--0-2---2---2---2---2---2--|
e|---------------------------------------------|

   C#m                  B
   bit  ng  yong  mga la-----bi--
e|---------------------------------|
b|--6---6---6---6---6----4---4---4-|
g|---6---6---6---6---6----4---4----|
d|---------------------------------|
a|-4---4---4---4---4--4-2---2---2--|
e|---------------------------------|

Chorus 1:
Kayo na bahala dito..

E                 C#m
Parang isang panaginip

          A         B
Ang muling mapagbigyan

   C#m                  E
Na tayo'y muling magkasama

    A               B
Ang dati ay baliwala

Interlude: E-G#m-C#m-B

Verse:
   E                        G#m           C#m
Nagkita rin ang ating landas wala nang iba

                     B                E
Akong hinihiling kundi ika'y pagmasdan

                        G#m
Mundo ko ay iyong niyanig

             C#m                   B
Oh anong ligayang ika'y sumama sa akin


Pre Chorus:
 A                 B
Nais ko nang humimbing

   C#m             B
Sa saliw ng iyong tinig


Chorus 2:

E             -  C#m
Parang isang panaginip

       A             B
Ang muling mapagbigyan

   C#m                E
Na tayo'y muling magkasama

     A              B
Ang dati ay baliwala

  E               C#m
Panatag na'ng kalooban ko

      A               B
At ika'y kapiling ko na

            A              B
Oh kay tagal kitang hinintay (2x)

Interlude:E-G#m-C#m-B-A-B-C#m-B

   A                B
Ligaya mo'y nasa huli

   C#m                B
Sambit ng 'yong mga labi


Repeat Chords in Chorus 2:

Parang isang panaginip
Ang muling mapagbigyan
Tayo'y muling magkasama
Ang dati ay baliwala
Ang dati ay baliwala

Parang isang panaginip
Ang muling mapagbigyan
Tayo'y muling magkasama
Ang dati ay baliwala

Panatag na'ng kalooban ko
At ika'y kapiling ko na
Oh kay tagal kitang hinintay (2x)


END~

clap clap clap!



Tap to rate this tab
# A B C D E F G H I J K L M N O P Q R S T U V W X Y Z