Song name
# A B C D E F G H I J K L M N O P Q R S T U V W X Y Z

Sponge Cola - Kay Tagal Kitang Hinintay tab

Title:Kay Tagal Kitang Hinintay
Artist:Spongecola
Tabber: Victor Dela Vega
E-mail:salamander3.0v@gmail.com
Tuning:Standard
(Meron din pong version na Half-step down ang tuning pero standard po ito)
 
 Intro:
  
 E    C#m    A    B    C#m  E   A    B 
|-4----4-----------------9---7---------------|
|-5-5--5-5---5-----7-----9---4---5--5/7------|
|-4--4-6--6--6-6---8-----9---4---6--6/8------|
|------------7--7--9-------------7--7/9------|
|--------------------------------------------|
|--------------------------------------------| 

 Verse:
   I
         E                     Abm
|----------------------------------------------------------|
|--9--9--9--9--9--9--9---12--12--12--12--12--12--12--------|
|----------------------------------------------------------|
|----------------------------------------------------------|
|-7--7--7--7--7--7--7--11--11--11--11--11--11--11----------|
|----------------------------------------------------------|

 C#m                  B
|-------------------------------------------|
|--5-5-5-5-5-5-5-4-4-4-4-4-4-4--------------|
|-------------------------------------------|
|-------------------------------------------|
|-4-4-4-4-4-4-4-2-2-2-2-2-2-2---------------|
|-------------------------------------------|

       A           E
|-------------------------------------------|
|--2-2-2-2-2-2-2-0-0-0-0-0-0-0--------------|
|-------------------------------------------|
|-------------------------------------------|
|-0-0-0-0-0-0-0-2-2-2-2-2-2-2---------------|
|-------------------------------------------|

      C#m            B
|-------------------------------------------|
|--5-5-5-5-5-5-5-4-4-4-4-4-4-4--------------|
|-------------------------------------------|
|-------------------------------------------|
|-4-4-4-4-4-4-4-3-3-3-3-3-3-3---------------|
|-------------------------------------------|

 Verse
  II:

         E                     Abm
|----------------------------------------------------------|
|--9--9--9--9--9--9--9---12--12--12--12--12--12--12--------|
|----------------------------------------------------------|
|----------------------------------------------------------|
|-7--7--7--7--7--7--7--11--11--11--11--11--11--11----------|
|----------------------------------------------------------|

 C#m                  B
|-------------------------------------------|
|--5-5-5-5-5-5-5-4-4-4-4-4-4-4--------------|
|-------------------------------------------|
|-------------------------------------------|
|-4-4-4-4-4-4-4-2-2-2-2-2-2-2---------------|
|-------------------------------------------|

       A           E
|-------------------------------------------|
|--2-2-2-2-2-2-2-0-0-0-0-0-0-0--------------|
|-------------------------------------------|
|-------------------------------------------|
|-0-0-0-0-0-0-0-2-2-2-2-2-2-2---------------|
|-------------------------------------------|

      C#m            B
|-------------------------------------------|
|--5-5-5-5-5-5-5-4-4-4-4-4-4-4--------------|
|-------------------------------------------|
|-------------------------------------------|
|-4-4-4-4-4-4-4-2-2-2-2-2-2-2---------------|
|-------------------------------------------|

 Refrain:
   I

      A           B           A    B  
|-------------------------------------------|
|--2-2-2-2-2-4-4-4-4-4-2-2-2-2-2-4-4-4------|
|-------------------------------------------|
|-------------------------------------------|
|-0-0-0-0-0-2-2-2-2-2-0-0-0-0-0-2-2-2-------|
|-------------------------------------------|

 Chorus: (strum slowly)
   I
 
 E              C#m 
Parang isang panaginip
       A            B               Eto po sa part na "balewala". Slide 
Ang muling mapagbigyan                 nyo lang po yung A sa 4th Fret.
C#m                 E                             A
Tayo'y muling magkasama                    |-----------------|
   A               B                       |-----2/4---------|  
Ang dati ay balewala                       |-----2/4---------|
                                           |-----2/4---------|
Interlude:E-Abm-C#m-B                      |-----------------|
                                           |-----------------|


Verse: 
  E                     Abm            C#m
Nagkita rin ang ating landas wala ng iba
                      B                 A
Akong hinihiling kung 'di ika'y pagmasdan
                       E
Mundo ko ay iyong niyanig
C#m                               B
Oh anung ligayang 'ka'y sumama sa akin

 Refrain:
   II

A                 B
Nais ko lang humimbing
A                 B
Sa saliw ng iyong tinig

 Chorus:
   II

E              C#m 
Parang isang panaginip
       A            B
Ang muling mapagbigyan           Para po ito sa part na "tayo'y muling 
C#m                 E               magkasama".Dito at sa last chorus.       
Tayo'y muling magkasama                          C#m
   A               B                       |---------------|
Ang dati ay balewala                       |---------------|
E                 C#m                      |---------------|
Panatag na'ng kalooban ko                  |----6-7-6------|
       A           B                       |---------------|
at ika'y kapiling ko na                    |---------------|
         A               B
Oh kay tagal kitang hinintay 
         A               B
Oh kay tagal kitang hinintay 

 Interlude: E-Abm-C#m-B-A-E-C#m-B

  Adlib:

|---------------------------14-11-12-12--------|
|--9--9--9-7--9-10-12-12-12--------------------|
|--9--9--9-------------------------------------|
|----------------------------------------------|
|----------------------------------------------|
|----------------------------------------------|

|-----------------------------12-----------14~~|
|-12/14-12---------------10-9------10/12-------|
|---------11/13-11-----------------------------|
|--------------------9h11----------------------|
|----------------------------------------------|
|----------------------------------------------|

|---------------------------------12b----------|
|----------------5-5-7/10--9-------------------|
|-----4h6p4-4-6---8-----9--9-11--9-------------|
|-4h6------8-----------------------------------|
|----------------------------------------------|
|----------------------------------------------|

|-12-16-12-11-12-14----------------------------|
|-------------------7--9-7\5-5h7/-9-7----------|
|----------------------------------------------|
|----------------------------------------------|
|----------------------------------------------|
|----------------------------------------------|

 Bridge:

 A                    B
Ligaya noo'y nasa huli

 A                    B
Sambit na ng 'yong mga labi


Eto po yung para sa susunod:
 
 Chorus:
  III
 
   E    C#m    A    B    C#m  E   A    B 
|-4----4-----------------9---7---------------|
|-5-5--5-5---5-----7-----9---4---5--5/7------|
|-4--4-6--6--6-6---8-----9---4---6--6/8------|
|------------7--7--9-------------7--7/9------|
|--------------------------------------------|
|--------------------------------------------|

Parang Isang panaginip
Ang muling mapagbigyan
Tayo'y muling magkasama
Ang dati ay balewala

====Strum na po sa part na ito====
                                  
A              B         <--------
Ang dati ay balewala

E              C#m 
Parang isang panaginip
       A            B
Ang muling mapagbigyan                     
C#m                 E                                 
Tayo'y muling magkasama                          
   A               B                      
Ang dati ay balewala                     
E                 C#m                   
Panatag na'ng kalooban ko                  
       A             B                    
At ika'y kapiling ko na                    
         A               B
Oh kay tagal kitang hinintay 
         A               B
Oh kay tagal kitang hinintay


       
============================Comment nalang po =======================
Tap to rate this tab
 
# A B C D E F G H I J K L M N O P Q R S T U V W X Y Z