Song name
# A B C D E F G H I J K L M N O P Q R S T U V W X Y Z

Sponge Cola - Tambay Acoustic chords

Highlighted       Show chord diagrams
-------------------------------------------------------------------------------
                             Tambay - Sponge Cola
-----------------------------------------------------------------------------

Tuning:Half-Step up (Capo 1)


Riff
    D          A        E                 
f |-----------------------------0------|
C |---3--------1----------0---------0--|
G#|-----2--------1----------1-----1---1|
D#|-0-----0--------1----2-----2--------|
A#|------------------------------------|
F |------------------------------------|

Chords: D A E F#m

1st verse:
       D     A    E
Makikisilong lang
       D     A  E     
Magpapalipas ng ulan
          D        A       E
Kwentuhan lang ang katapat
        D    A
Pero mas masaya
E
Kung ilabas ang gitara

Refrain:

D                        A
Bigyan ng ingay itong gabi
D                        A
Walang tahimik na sandali
E
Tara na
D
Umawit kasabay ng kanta

Chorus:
          D A          E A
Tumatambay at nagkakatitigan
          D       A          E   
Alam naman nila kahit na ‘di mag-aminan
          D A          E F#m
Tumatambay at nagkaka-igihan
D
Ito ang aking kwento
E
Ituloy mo lang ang kwento
at tayo’y gagawa ng kanta

2nd Verse (same chords as verse 1):

Tayo’y umawit pa
Hanggang malimot ang ulan
Damdamin ko’y ilalahad
Sa bawat himig ng buhay
Lagyan natin ng kulay


Refrain: same

Chorus: same

Instrumental: same

Chorus: same


Chorus: higher by 2 notes
          E B          F# B
Tumatambay at nagkakatitigan
          E       B          F#   
Alam naman nila kahit na ‘di mag-aminan
          E B          F# G#m
Tumatambay at nagkaka-igihan
E
Ito ang aking kwento
F#
Ituloy mo lang ang kwento
at tayo’y gagawa ng kanta
Tap to rate this tab
# A B C D E F G H I J K L M N O P Q R S T U V W X Y Z