Song name
# A B C D E F G H I J K L M N O P Q R S T U V W X Y Z

Sponge Cola - Kailangan Kita tab

Artist: Sponge Cola
Song :  Kailangan Kita
Album:  ULTRABLESSED
Tabbed By:      Allan G. Amisola (Lanzkie)
E-mail:         kogure_18spider@yahoo.com
Date/Time:      friday, Nov.15,2013 - 10pm

Tuning:         Half-step Down [Eb|Ab|Db|Gb|Bb|eb]
Song Link:      YouTube - http://www.youtube.com/watch?v=FjD0S9tvdV0
Tab Legends:
                h - hammer on
                ~ - let ring
                s - slide to
                * - harmonics
                $ - stacatto
                x - strike muted strings
Chord Legend: (*) - strum once

Chords, recommended:
        Simple Chords           Power Chords
        G: 320033               G5(G): 35xxxx
       Bm: x24432               C5(C): x35xxx
       Em: 022000               A5(A): 57xxxx
       Cm: x35543               D5(D): x57xxx
      Bm7: x24232               B5(Bm):x24xxx
        F: 133211               E5(Em):x79xxx
       Bb: x1x331               A/C#5: x47xxx (x4222x)
       Gm: 355333
       Eb: xx134x


Please rate this tab. This is very accurate.
A very good song for admiring a person...
I proudly dedicate this to my schoolmates in Bicol University,
        College of Social Sciences and Philosophy, 2010-2014...
...and for a special person in my life...



VERSE1:         G-Bm-Em-Cm(*)
           Sana ay iyong naririnig
           Pusong ikaw lang ang pinipintig
           Tanging ikaw lang ang ligaya

INTERLUDE:
    G            Bm              Em        Cm
eb|-------------------------------------------------------|
Bb|-------------------------------------------------12*---|
Gb|-----------------------10s11------------12~------------|
Db|-----9h10-12~------7h9--------12-----------------------|
Ab|--10------------10----------------10~------------------|
Eb|-------------------------------------------------------|

VERSE2:         G-Bm-Em-Cm-
         Parang buhay ko'y may taning
         T'wing ika'y nalalayo sa'king tabi
         Laging tinatanong sa tuwina

                G-Bm-Em-Cm-
         Ikaw ba'y makakapiling ko
         Ngayong gabi'ng walang kasing lamig
       at muling magigisnan ko bukas

PRE-CHO:        G-Bm7-Em--Cm(*)F--
                Bawat nakaw na sandali
                Lagi kong hinihiling
                Ikaw sa piling ko'y mananatili

CHORUS:
              Bb   F        Gm  F
                Kailangan kita
                           Eb          Cm           Bb       F
                Pagkat ang buhay ko ay kulang kung ika'y mawawala
              Bb   F        Gm  F
                Kailangan kita
                        Eb(*)     Cm(*)
                Sana pagdilat ko ika'y nandito na

VERSE3:         G-Bm-Em-Cm(*)
                Sa aking bisig
                Ikaw ay yayakapin kong buong higpit
                Pangakong 'di ka bibitiwan

BRIDGE:(distortion)
                   G5    C5
                Hindi magmamaliw
                    A5        D5
                Pag-ibig ko't himig
                    B5         E5        C5
                Ang puso ko'y 'yong inangkin

                          B5   C5
                tadhanang kakaiba
                    A/C#5    D5
                Sa atin tinakda
                    B5      E5       C5
                Magmula ng ika'y dumating
                    Cm
                o giliw...

ADLIB/
SOLO:
                                         Bb        F      Gm  F
eb|--xx----xxxxx--------------------------------------------------------------------------------|
Bb|--xx----xxxxx-----------------------------------18$-20-15~~~---------------------------------|
Gb|--xx----xxxxx-------------------15----15--15~---x--------------------------------------------|
Db|--xx----xxxxx-------15----15-17----17-----------x--------------------------------------------|
Ab|--xx----xxxxx--(17)----17--------------------------------------------------------------------|
Eb|--xx----xxxxx--------------------------------------------------------------------------------|

               Eb            Cm               Bb             F                           
 Bb
eb|---------------------------------------------------------------------------------------------|
Bb|--13----13--s16-15-13-----s15-13----13$-13-s15----15-15^r-13---13^14r13-11----13p11----11~~~-|
Gb|-----15---------------15---------15-------------------------------------------------12-------|
Db|---------------------------------------------------------------------------------------------|
Ab|---------------------------------------------------------------------------------------------|
Eb|---------------------------------------------------------------------------------------------|

CHORUS2:
              Bb   F        Gm  F
                Kailangan kita
              Eb          Cm           Bb       F
                Pagkat ang buhay ko ay kulang kung ika'y mawawala
              Bb   F        Gm  F
                Kailangan kita
                           Eb        Cm               Bb       F
                Pagkat ang puso mo sayo'y wala nang i-liligaya pa
              Bb   F        Gm  F
                Kailangan kita
                        Eb        Cm
                Sana pagdilat ko ika'y nandito na

OUTRO:         G(*)
                Iyo bang naririnig
              Bm(*)                     Em(*)
                Pusong ikaw lang ang pinipintig
Tap to rate this tab
# A B C D E F G H I J K L M N O P Q R S T U V W X Y Z