Song name
# A B C D E F G H I J K L M N O P Q R S T U V W X Y Z

Sponge Cola - Anting-anting tab

Email: u.guitar@yahoo.com
FB: kingvanzsantiago@yahoo.com
100% tama po ito lahat I hope you like it Thank You!!

Chords used: Bbm - x13321
              Fm - 133111
              G# - 466544
              Eb - xx1343 or x68886
              C# - x46664 or x43121
              F# - 244322
            Eb/G - 311341
              

Intro: Bbm-Fm
  
       E----------------------E
       B------2----4----2-----B
       G-3------------1---1---G 3x
       D----------------------D
       A-1--1---1-------------A
       E-----------1----------E
              
       G#-Eb

Verse: Bbm-Fm                   Bbm-G#
       nagbubulungan ang silid, nakatingin ka sa sahig
       Eb                          G#-C#
       tanging hiling mo lamang ay hindi ka mapansin
       Bbm-Fm                       Bbm-G#
       laging lutang ang iyong isip,at lumalabo ang tingin
       Eb.                     G#-C#
       sanay mga sigaw nila ay hindi mo marinig

Refrain: Bbm             G#
         mahirap mang di mainis,
         Bbm                  G#-Eb
         tumingala ka lang at wag magpa api
         Bbm                      G#
         bigyang dangal ang iyong sarili,
         F#            Eb
         hindi ka nila kayang basagin

Chorus: G#.                           Eb/G            F#            C#
        magmula ngayon, ikay magniningning para magsilbing anting anting
        G#.                           Eb/G.           F#.           C#
        magmula ngayon, ikay magniningning para magsilbing anting anting
        yeahhh

denise barbacena
Verse: Bbm-Fm.                Bbm-G#            Eb.          C#
       minsan tinatanong ang  sarili kung bakit porke na ako tuwing akoy lalapit 
       Bbm-Fm.        Bbm-G#.             Eb.            G#-C#            
       bat sila ganon nalang makapanglait tiwala ko sa sarili parang binali

[gloc9]
       Bbm-Fm.                            Bbm-G#
       palayo,pwede bang makipagkaibigan, kahit di mamahalin aking mga kasuotan,
       Eb.                                G#-C#
       na maong baro, lalo na at sapatos ,relo telepono kailan matatapos

[denise barbacena]
Refrain:Bbm.                                     G#
        ang mapanghusgang paningin ng lahat ang iyong halaga dapat may katapat
        Bbm
        maliit ka parin kahit na iaangat
        G#-Eb
        na hindi totoo ang mga alamat

[gloc9]
        Bbm.                                     G#
        pero pwede tong tumalon,pwedeng maniwala magtiwala ka lamang at si bathala ang bahala
        F#.                                      Eb
        sa mga pangarap na dinudungaw sa bintana kasabay ng mga awit na to at luluhot ang mga tala

Chorus:[yael]
        G#.                           Eb/G.           F#.           C#
        magmula ngayon, ikay magniningning para magsilbing anting anting
        G#.                           Eb/G.           F#.           C#
        magmula ngayon, ikay magniningning para magsilbing anting anting
        anting anting……

Solo: Bbm Fm F# G#
      Bbm Fm F# Eb

      E-----------------------------------------------------------------------------E
      B-6-----6-------------6-6--------6-6-----------6-9-9s11-11-11-9-9-9s11-6----6-B
      G----8-----8-6-6-6s8-------8-6-8-----------6-8----------------------------8---G
      D-------------------------------------6-8-------------------------------------D
      A-----------------------------------------------------------------------------A
      E-----------------------------------------------------------------------------E

      E------------------------------------------------------------------------9-11-9-11s13-11-E
      B----9----11----9----11----9----11----9----11-11-9----11-9-9-11-9----9-11----------------B
      G-10---10----10---10----10---10----10---10---------10-------------10---------------------G
      D----------------------------------------------------------------------------------------D
      A----------------------------------------------------------------------------------------A
      E----------------------------------------------------------------------------------------E

Chorus:Same chords sa unang chorus G# Eb/G F# C#

magmula ngayon, ikay magniningning sa ibay magsilbing anting anting
maging isang tugon sa mga naaapi
at tayoy magsilbing anting anting

magmula ngayon, ikay magniningning para magsilbing anting anting
magmula ngayon, ikay magniningning para magsilbing anting anting
magmula ngayon, magmula ngayon magmula ngayon
G# Eb/G F# C #
pero pwede tumalon pwede maniwala
magtiwala ka lamang at si bathala ang bahala
kasabay ang awit na to at luluhod ang mga tala
Tap to rate this tab
# A B C D E F G H I J K L M N O P Q R S T U V W X Y Z