Guitaretab - guitar tabs
Song name
# A B C D E F G H I J K L M N O P Q R S T U V W X Y Z

Sponge Cola - Lunes tab

Lunes by spongcola
tabbed by justin carlo c
visit me at my friendster account justincarlo88@yahoo.com
yahoo messenger - jco_lead
(im sure youre going to enjoy this song coz its freaking nice! Kaso tagalog nga lang
bawal sa mga sateside)

INTRO (x2)
F-Am-G
strumming
(acoustic sim)
----0------0---0-------0--------------------|
----1------1---1-------1--------------------|
----2------2---2-------2--------------------|
----3------3---3-------3--------------------|
--3---0---3---3---0---3----2----------------|
--------------------------------------------|


-------------------------------------------|
----1----1----3------3---------------------|
----2----2----0------0---------------------|
----2----2----0------0---------------------|
--0---0-0----------------------------------|
------------3----3-3-----------------------|

during the 2nd part of the intro, there is a solo part which is

guitar 1
----3-3-3-1-0-1-3-1-3------------------------|
--1------------1-----------------------------|
---------------------------------------------|
---------------------------------------------|
---------------------------------------------|
---------------------------------------------|
guitar 2
---------------8-7-5------------------------|
--------------------------------------------|
--------------------------------------------|
--------------------------------------------|
--------------------------------------------|
--------------------------------------------|

** these solos are played consecutively!

VERSE
F-Am-G
strumming
(acoustic sim)
----0------0---0-------0--------------------|
----1------1---1-------1--------------------|
----2------2---2-------2--------------------|
----3------3---3-------3--------------------|
--3---0---3---3---0---3----2----------------|
--------------------------------------------|

-------------------------------------------|
----1----1----3------3---------------------|
----2----2----0------0---------------------|
----2----2----0------0---------------------|
--0---0-0----------------------------------|
------------3----3-3-----------------------|

----0------0---0-------0--------------------|
----1------1---1-------1--------------------|
----2------2---2-------2--------------------|
----3------3---3-------3--------------------|
--3---0---3---3---0---3----2----------------|
--------------------------------------------|

------------------------------------------|
----1----1----3---------------------------|
----2----2----0---------------------------|
----2----2----0---------------------------|
--0---0-0---------------------------------|
------------3-----------------------------|
[ Tab from: http://www.guitaretab.com/s/sponge-cola/52021.html ]
PRE-CHORUS
A#-Am-D-C
(Distortion)
--------------------------------------------|
--------------------------------------------|
--------------------------------------------|
-------7------------------------------------|
--8--7--5--5--------------------------------|
--6--5-----3--------------------------------|

CHORUS (x2)
F-C-Am-G
(Distortion)
--------------------------------------------|
--------------------------------------------|
--------------------------------------------|
-----5--------------------------------------|
--3--3--7--5--------------------------------|
--1-----5--3--------------------------------|

** the last chorus is played with wah!!

PRE-BRIDGE!?!? (x2)
F-C
---------------------------------------------|
---------------------------------------------|
---------------------------------------------|
-----5---------------------------------------|
--3--3---------------------------------------|
--1------------------------------------------|

BRIDGE (x4)
(distortion)
A#-Am-D-C
---------------------------------------------|
---------------------------------------------|
---------------------------------------------|
-------7--5----------------------------------|
--8--7--5--3---------------------------------|
--6--5---------------------------------------|


LEAD/SOLO
(distortion)
h- hammer on
H- hammer off
s- slide
/- bend
** during the lead or solo, the 2nd part of the bridge is played with wah!!
------------------------------------------------------|
------------------------------------------------------|
------------------------------------------------------|
------------------------------------------------------|
-5-7-7s8-7-8-8s10-8-10-10s12-10-12-12s13-12-13-13s15--|
------------------------------------------------------|

--------------------------------------------------|
--------------------------------------------------|
--------------------------------------------------|
--------------------------------------------------|
--15-13h15-15-15-13h15-15-15-13-12-13-12-10-8-----|
--------------------------------------------------|

---------------------------------------------|
---------------------------------------------|
--------5/-4-2---------5-5s7-7/--------------|
-----5-7-----------5-7-----------------------|
--5-7----------5-7---------------------------|
---------------------------------------------|

OUTRO
(Distortion)
F-C
--------------------------------------------|
--------------------------------------------|
--------------------------------------------|
-----5--------------------------------------|
--3--3--------------------------------------|
--1-----------------------------------------|

tnx to all who have inspired me play...G0D, my family, bea, friends/classmates, NU 107!
(be safe wherever you are..)
support our band freefall/ support our song tightrope!
freefall@yahoo.com (friendster account) \m/
wait for my next tabs!
please rate my tab
Related for Lunes tab