Song name
# A B C D E F G H I J K L M N O P Q R S T U V W X Y Z

Sponge Cola - To The Sly And Cunning tab

Help us improve GuitareTab! Take a short survey!
Band / Artist: Sponge Cola
Song Title: To The Sly And Cunning
Album: Palabas
Track Number: 9
Running Time: 3:41
Lyrics and Tablature Provided By: Karel Merito S. Perfecto
                                  Mapua Institute of Technology

This is my first tab. Sana ma-enjoy niyo. Paki-rate na lang po. Mga 98% sure itong tabs 
Thanks! E-mail your comments at gunbird_strikers@yahoo.com. Add miyo din ako sa Friendster!

Intro:

Guitar 1

   E5             C#5
e|------------------------------|
B|------------------------------|
G|----------------66-66-66-6666-|
D|-22-22-22-2222--66-66-66-6666-|
A|-22-22-22-2222--44-44-44-4444-| (2x)
E|-00-00-00-0000----------------|

Guitar 2

e|-------9-999999-------9-999999-|
B|-------9-999999-------9-999999-|
G|-------------------------------|
D|-------------------------------|
A|-------------------------------|
E|-------------------------------|

e|-------9-999999-------99x9999--|
B|-------9-999999-------99x9999--|
G|-------------------------------|
D|-------------------------------|
A|-------------------------------|
E|-------------------------------|

Verse 1:

   E5               C#5
e|----------------------------------|
B|----------------------------------|
G|-------------------------6---6--6-|
D|---------------2--66666666-666-66-|
A|-222222222222222--44444444-444-44-|
E|-000000000000000------------------|

   E5              C#5
e|--------------------------------|
B|--------------------------------|
G|-------------------6--66--66--6-|
D|---2--22--2---2--666-666-666-66-|
A|-222-222-22-222--444-444-444-44-|
E|-000-000-00-000-----------------|

Refrain 1:

Guitar 1

   A5               C#5
e|----------------------------------|
B|----------------------------------|
G|------------------66x666x666x6666-|
D|-77x777x777x7777--66x666x666x6666-|
A|-77x777x777x7777--44x444x444x4444-|
E|-55x555x555x5555------------------|

   A5               C#5
e|----------------------------------|
B|----------------------------------|
G|------------------66x666x66666666-|
D|-77x777x777x7777--66x666x66666666-|
A|-55x555x555x5555--44x444x44444444-|
E|-55x555x555x5555------------------|
                           ^
Guitar 2                   |

e|---------------------|  ---|
B|---------------------|  ---|
G|-66-/-8-/-9-/-11--4-|  ----|
D|-66-/-8-/-9-/-11--2-|  ----|
A|-44-/-6-/-7-/--9--x--------| (pasok niyo ito dito!)
E|---------------------------|

Chorus 1:

   E5                    C#5
e|---------------------------------------|
B|---------------------------------------|
G|-----------------------6--666666666666-|
D|-2222222222222222--22226--666666666666-|
A|-2222222222222222--22224--444444444444-|
E|-0000000000000000--0000----------------|

   E5                    C#5
e|----------------------------------------------------------|
B|----------------------------------------------------------|
G|-----------------------6--666666666-----------------------|
D|-2222222222222222--22226--666666666(break)----------------| (may bass dito! kapain
A|-2222222222222222--22224--444444444-----------------------|  niyo na lang! Hehehe!)
E|-0000000000000000--0000--------------------|           ---|
                                      ^                   |
                                      |___________________|

Repeat Intro (ulitin ang intro! inulit ko din yung tab ng intro!)

Guitar 1

   E5             C#5
e|------------------------------|
B|------------------------------|
G|----------------66-66-66-6666-|
D|-22-22-22-2222--66-66-66-6666-|
A|-22-22-22-2222--44-44-44-4444-| (2x)
E|-00-00-00-0000----------------|

Guitar 2

e|-------9-999999-------9-999999-|
B|-------9-999999-------9-999999-|
G|-------------------------------|
D|-------------------------------|
A|-------------------------------|
E|-------------------------------|

e|-------9-999999-------99x9999--|
B|-------9-999999-------99x9999--|
G|-------------------------------|
D|-------------------------------|
A|-------------------------------|
E|-------------------------------|


Verse 2:

   E5               C#5
e|----------------------------------|
B|----------------------------------|
G|-------------------------6-666-66-|
D|--------2---2-22--66666666-666-66-|
A|-22222222-222-22--44444444-444-44-|
E|-00000000-000-00------------------|

   E5              C#5
e|--------------------------------|
B|--------------------------------|
G|-------------------6---6---6--6-|
D|---2--22--2---2--666-666-666-66-|
A|-222-222-22-222--444-444-444-44-|
E|-000-000-00-000-----------------|

Refrain 2: (Same as Refrain 1)

Guitar 1

   A5               C#5
e|----------------------------------|
B|----------------------------------|
G|------------------66x666x666x6666-|
D|-77x777x777x7777--66x666x666x6666-|
A|-77x777x777x7777--44x444x444x4444-|
E|-55x555x555x5555------------------|

   A5               C#5
e|----------------------------------|
B|----------------------------------|
G|------------------66x666x66666666-|
D|-77x777x777x7777--66x666x66666666-|
A|-55x555x555x5555--44x444x44444444-|
E|-55x555x555x5555------------------|
                           ^
Guitar 2                   |

e|---------------------|  ---|
B|---------------------|  ---|
G|-66-/-8-/-9-/-11--4-|  ----|
D|-66-/-8-/-9-/-11--2-|  ----|
A|-44-/-6-/-7-/--9--x--------| (pasok niyo ito dito!)
E|---------------------------|

Chorus 2:

   E5                    C#5
e|---------------------------------------|
B|---------------------------------------|
G|-----------------------6--666666666666-|
D|-2222222222222222--22226--666666666666-|
A|-2222222222222222--22224--444444444444-| (2x)
E|-0000000000000000--0000----------------|

Adlib:

   E
e|---------------------------|
B|-7-9---9-9--9-7-9-7-9--(9)-|
G|-----8--8--8----------8----|
D|---------------------------|
A|---------------------------|
E|---------------------------|

   C#m
e|-------16----16---16--16--16---|
B|----14----14----14--14--14--14-|
G|-13----------------------------|
D|-------------------------------|
A|-------------------------------|
E|-------------------------------|

   E
e|-----------------------------|
B|-7-9---9~----9-9-7-9---------|
G|-----8------8-8--------------|
D|-----------------------------|
A|-----------------------------|
E|-----------------------------|

   C#m
e|-------16----16---16--16--16-----|
B|----14----14----14--14--14-------|
G|-13------------------------------|
D|---------------------------------|
A|---------------------------------|
E|---------------------------------|

Bridge:

   A5               C#5
e|----------------------------------|
B|----------------------------------|
G|------------------66x666x666x6666-|
D|-77x777x777x7777--66x666x666x6666-|
A|-77x777x777x7777--44x444x444x4444-| (2x)
E|-55x555x555x5555------------------|

   A5               C#5
e|----------------------------------|
B|------------------44x444x444x4444-|
G|-66x666x666x6666--66x666x666x6666-|
D|-77x777x777x7777--66x666x666x6666-|
A|-77x777x777x7777--44x444x444x4444-|
E|-55x555x555x5555------------------|

   A5               C#5
e|----------------------------------|
B|------------------44x444x44444444-|
G|-66x666x666x6666--66x666x66666666-|
D|-77x777x777x7777--66x666x66666666-|
A|-77x777x777x7777--44x444x44444444-|
E|-55x555x555x5555------------------|

Chorus 3:    ------ (sabit sa gitara o konting tapat sa amplifier!
            |        kunin niyo yung tiyempo tsaka tamang effects!)
   E        v   E    hindi lang ako sure! Hehehe!)
e|-----------------------------|
B|---0--0--00------------------|
G|---1--1--11-----1--1--1----1-|
D|-222-22-222---222-22-22-2222-|
A|-222-22-222---222-22-22-2222-|
E|-000-00-000---000-00-00-0000-|

       C#5
e|---------------------|
B|---------------------|
G|-----6--666666666666-|
D|-22226--666666666666-|
A|-22224--444444444444-|
E|-0000----------------|

   E5                    C#5
e|---------------------------------------|
B|---------------------------------------|
G|-----------------------6--666666666666-|
D|-2222222222222222--22226--666666666666-|
A|-2222222222222222--22224--444444444444-|
E|-0000000000000000--0000----------------|

Coda:

   E5
e|---|
B|---|
G|---|
D|-2-|
A|-2-| (let it ring)
E|-0-|

  C#5
e|---|
B|---|
G|-6-|
D|-6-|
A|-4-| (let it ring)
E|---|

   E5
e|---|
B|---|
G|---|
D|-2-|
A|-2-| (let it ring)
E|-0-|

  C#5
e|---|
B|---|
G|-6-|
D|-6-|
A|-4-| (let it ring)
E|---|

Lyrics (sure na ito! 100% sure!)

Intro:

Verse 1:

Draw the line
Slightly submissive
She faints in time
Opens her mouth in reflex

Refrain 1:

Something comes soon
We all make room
Numbs the senses

Chorus 1:

Take me up and down again
'Cause I know you're the one for me
Take me up and down again
'Cause I know you're the one...

Repeat Intro

Verse 2:

Ninety-nine
Rapid flowing movements
She paints the night
Releases rabid kisses

Refrain 2:

Something comes on
We all get some
What's my sentence?

Chorus 2:

Take me up and down again
'Cause I know you're the one for me
Take me up and down again
'Cause I know you're the one for me

Adlib:

Bridge:

Hand to thigh
Neck to sky
Up above
Have I been there?
(Repeat)

Chorus 3:

Take me up and down again
'Cause I know you're the one for me
Take me up and down again
'Cause I know you're the one for me

Coda:

'Cause I know you're the one for me
'Cause I know you're the one for me
'Cause I know you're the one supposedly

Greetings and Pasasalamat Corner:

First of all, I want to thank God for letting me submit this tab.

I want to thank the following:

Special Credits:
Ultimate Guitar, its members, staff and browsers, Sponge Cola (Yael Yuzon, Gosh Dilay, 
Nepomuceno and Chris Cantada), Korg, Paiste, Fernando, Rockwood, Vantage, Weinstein, and 
favorite, Konzert for the effects.

Mga ka-bandmates ko:
Adu(for the lyrics and the guitar), Atong, Cesar, Jason

Mga todo na 'to supporters:
Evangeline Bidaure, Jayson Maquimot, and Honeylou Theresse Sajonia (for the CD of Spongecola)

Mga taga-Marikina High School:
Keats, Lala, joy Ann, Kat, Mae, Noemi, Kate, Eds, Cielo, Joel, Alberto, Mark at mga 
na nagsi-graduate ngayong 2006! =)

MFBC Youth and PAWT:
Ate Joy S., Ate Joydean, Kuya Emboy, Kuya Jomar, Kuya Thon, Re-Ann, Angel, Julie, 
at sa mga nagguguwapuhan at nagsisigandahang Youth!

Family ko:
Mama, Papa, Kuya, Ate, at B.

Mga ka-berks ko sa Mapua:
Mon, Ver, Raf, Sus, Tsong Eric, Van, Christian, Raymond the Bassist, Gene, Jackson, 
Fritz, Ritz, Aldrin, Jeff, Leane, K-tel, Bebc, KJA, KJF, Paula, Jen, Racquel, Ailyn at sa 
ng bumubuo ng MIT-CMSV.

More Power to Ultimate-Guitar! God Bless You and Your website!
Related for To The Sly And Cunning tab