Guitaretab - guitar tabs
Song name
# A B C D E F G H I J K L M N O P Q R S T U V W X Y Z

Sponge Cola - Bitiw tab

Title: Bitiw
Artist: Spongecola
Album: Transit
Tab dude: Koko Capule
Tuning: 1 Half-Step Down (Eb,Ab,Db,Gb,Bb,Eb)

s <----slide
h <----hammer-on
p <----pull-off
~ <----vibrato(mild)

i saw most of this done in ateneo's blue rock festival
at the ateneo covered courts, nov.11 2006.

Dec.17,'06

i'm 99.9% sure of my tab, so if you guys spot a mistake,
please leave a comment or e-mail me...

Dec.21,'06

yep.. just improved on the layout of my tab...

----------------------------------------------------------------------------
intro:

Gtr.1
    C                     Bb C
Eb|----------------------------|
Bb|----------------------------| x4
Gb|-6-6--6-6-6--6-6-6--6-6s4s6-| 
Db|-6-6--6-6-6--6-6-6--6-6s4s6-| 
Ab|-4-4--4-4-4--4-4-4--4-4s2s4-| 
Eb|----------------------------|

Gtr.2

guitar 2 will enter at the second time
guitar 1 plays the above riff.
 
    C                     Eb C  C                     Bb C 
Eb|--------------------------------------------------------|
Bb|--------------------------------------------------------| 
Gb|-6-6--6-6-6--6-6-6--6-6s9s6--6-6--6-6-6--6-6-6--6-6s4s6-| 
Db|-6-6--6-6-6--6-6-6--6-6s9s6--6-6--6-6-6--6-6-6--6-6s4s6-|
Ab|-4-4--4-4-4--4-4-4--4-4s7s4--4-4--4-4-4--4-4-4--4-4s2s4-|
Eb|--------------------------------------------------------|

----------------------------------------------------------------------------
verse1:

Gtr.1
    C                     Bb C
Eb|----------------------------|
Bb|----------------------------| x4
Gb|-6-6--6-6-6--6-6-6--6-6s4s6-| 
Db|-6-6--6-6-6--6-6-6--6-6s4s6-| 
Ab|-4-4--4-4-4--4-4-4--4-4s2s4-| 
Eb|----------------------------|

Gtr.2
    C           Eb         F         C           Eb
Eb|-------------------------------------------------------------|
Bb|-------------------------------------------------------------| x2
Gb|-6-6--6-6-6--9-9-9--9-9s11-11-11--6-6--6-6-6-----------------|
Db|-6-6--6-6-6--9-9-9--9-9s11-11-11--6-6--6-6-6--2-2-2--2-2-2-2-|
Ab|-4-4--4-4-4--7-7-7--7-7s-9--9--9--4-4--4-4-4--2-2-2--2-2-2-2-|
Eb|----------------------------------------------0-0-0--0-0-0-0-|
                                       
----------------------------------------------------------------------------
pre-chorus:(Gtrs.1,2)
    F
Eb|-----------------------------| "isnag mahabang panaghinip...
Bb|-----------------------------|
Gb|-----------------------------|
Db|-4--4--4-4-4--4--4-4--4--4-4-|
Ab|-4--4--4-4-4--4--4-4--4--4-4-|
Eb|-2--2--2-2-2--2--2-2--2--2-2-|

    
     di  na  hi hin to.......................ooh"
     Eb  D   B   Ab C#
Eb|----------------------------------------------|
Bb|----------------------------------------------|
Gb|-s9--s8--s5------7--7-7-7-7-7-7-7-7-7-7-7-7-7-|
Db|-s9--s8--s5--s7--7--7-7-7-7-7-7-7-7-7-7-7-7-7-|
Ab|-s7--s6--s3--s7--5--5-5-5-5-5-5-5-5-5-5-5-5-5-|
Eb|-------------s5-------------------------------|

    D
Eb|-----------------------------|
Bb|-----------------------------|
Gb|-8-8-8-8-8-8-8-8-8-8-8-8-8-8-|
Db|-8-8-8-8-8-8-8-8-8-8-8-8-8-8-|
Ab|-6-6-6-6-6-6-6-6-6-6-6-6-6-6-|
Eb|-----------------------------|

----------------------------------------------------------------------------
chorus:

Gtrs.1,2
    Eb                         G
Eb|-------------------------------------------------------|
Bb|-------------------------------------------------------|
Gb|-------------------------------------------------------|
Db|-2--2--2-2-2-2--2-2-2--2-2--6--6--6-6-6-6--6-6-6--6-6--|
Ab|-2--2--2-2-2-2--2-2-2--2-2--6--6--6-6-6-6--6-6-6--6-6--|
Eb|-0--0--0-0-0-0--0-0-0--0-0--4--4--4-4-4-4--4-4-4--4-4--|

    F                             G#
Eb|--------------------------------------------------------|
Bb|--------------------------------------------------------|
Gb|--------------------------------------------------------|
Db|-4--4--4-4-4-4--4-4-4--4-4--4--7--7-7-7-7--7-7-7--7-7-7-|
Ab|-4--4--4-4-4-4--4-4-4--4-4--4--7--7-7-7-7--7-7-7--7-7-7-|
Eb|-2--2--2-2-2-2--2-2-2--2-2--5--5--5-5-5-5--5-5-5--5-5-5-|
----------------------------------------------------------------------------
pre-verse:
(bass)
Gb|---------------------------------|
Db|---------------------------------| x2
Ab|-4-4-4-2-2-2-2-2-----------------|
Eb|-----------------4-4-4-2-2-2-2-2-|

Gtr.2
    C
Eb|----------"na na..."-|
Bb|---------------------|
Gb|-6---------6-------6-| gagawin ito sa pangalawang riff ng bass 
Db|-6-------6-------6---|
Ab|-4-----4-------4-----|
Eb|---------------------|

----------------------------------------------------------------------------
verse:

Gtrs.1,2
    C     G    Bb   C     G    Bb   C     G    Bb
Eb|------------------------------------------------| "Teka, Kaya ba natin
Bb|------------------------------------------------|   'to?..."
Gb|-6-6--------4-4--6-6--------4-4--6-6--------4-4-|
Db|-6-6---6-6--4-4--6-6---6-6--4-4--6-6---6-6--4-4-|
Ab|-4-4---6-6--2-2--4-4---6-6--2-2--4-4---6-6--2-2-|
Eb|-------4-4-------------4-4-------------4-4------|
    Ab
Eb|---------------|"tuloy, tuloy!!!"
Bb|---------------|
Gb|---------------|
Db|-7--7--7--7--7-|
Ab|-7--7--7--7--7-|
Eb|-5--5--5--5--5-|

repeat chorus 2x

----------------------------------------------------------------------------
pre-solo:(bass)

Gb|----------4-------6-6-----------4-------6-|pause
Db|-------6----6-----------------6---6-------|
Ab|-4-4-4----------4------4-4-4----------4---|
Eb|------------------------------------------|

Gb|----------4-------6-6-|
Db|-------6----6---------|x2
Ab|-4-4-4----------4-----|
Eb|----------------------|

Gb|----------6-----------|
Db|-------6----6-----2-2-|x2
Ab|-4-4-4----------4-----|
Eb|----------------------|
                          
----------------------------------------------------------------------------
Solo:

Gtr.2                              
[ Tab from: http://www.guitaretab.com/s/sponge-cola/77841.html ]
Eb|-----------------------------------------------------|
Bb|-s9-9h10p9-7-9-7-------------------------------------|
Gb|-----------------9-11-9-8-9-8-6-5-5h6~~----4---4---4-|
Db|---------------------------------------------6---6---|
Ab|-----------------------------------------------------|
Eb|--------------------------------------------|--------|
                                               |Gtr.1
                                               |--------|
                        sasbay ang guitar1     |--------|
                        sa bass dito           |--------|
                                               |---2-2--|
                                               |-4------|
                                               |--------|

---------------------------------------------------------------------------
Gtr.2

Eb|-----------------------------------------------------------|
Bb|-----------------------------------------------------------|
Gb|-------6---6-4-6---4-6-4-6---6s8---------4---4-2-4---------|
Db|-------------------------------------------------------4-4-|
Ab|-4-4-4-----------------------------4-4-4-------------2-----|
Eb|-----------------------------------------------------------|

Gtr.1
    C                                C
Eb|-----------------------------------------------------------|
Bb|-----------------------------------------------------------|
Gb|---------6---------------------------------6---------------|
Db|-------6---6---------4-4-----------------6---6---------4-4-|
Ab|-4-4-4-------------2---------------4-4-4-------------2-----|
Eb|-----------------------------------------------------------|

----------------------------------------------------------------------------
Continue:

Gtr.2

Eb|-----------------------------------------------------------------|
Bb|-------------------------------------------5-5-7-7s9-9-10s12-12~-|
Gb|---------------------------------4s6-6~--------------------------|
Db|-2s4-4-4-4-4-4-4-4-4-4-4-4-4-4-2---------------------------------|
Ab|-----------------------------------------------------------------|
Eb|-----------------------------------------------------------------|

Gtr.1
    F                               G#
Eb|-----------------------------------------------------------------|
Bb|-----------------------------------------------------------------|
Gb|-----------------------------------------------------------------|
Db|-4-4-4-4-4-4-4-4-4-4-4-4-4-4-4-4-7-7-7-7-7-7-7-7-7-7-7-7-7-7-7-7-|
Ab|-4-4-4-4-4-4-4-4-4-4-4-4-4-4-4-4-7-7-7-7-7-7-7-7-7-7-7-7-7-7-7-7-|
Eb|-2-2-2-2-2-2-2-2-2-2-2-2-2-2-2-2-5-5-5-5-5-5-5-5-5-5-5-5-5-5-5-5-|
----------------------------------------------------------------------------
Pre-Chorus:

Gtr.2:

Eb|-------------------|
Bb|-17s16-17s16-17s16-| just listen to how it's plucked
Gb|-------------------| (ang dami kasi eh!!!!)
Db|-------------------|
Ab|-------------------|
Eb|-------------------|

Gtr.1
    C                G
Eb|----------------------------------|"ating tinig..."
Bb|----------------------------------|
Gb|-6-6-6-6-6-6-6-6------------------|    x3
Db|-6-6-6-6-6-6-6-6--6-6-6-6-6-6-6-6-|
Ab|-4-4-4-4-4-4-4-4--6-6-6-6-6-6-6-6-|
Eb|------------------4-4-4-4-4-4-4-4-|



----------------------------------------------------------------------------
next part:
    F                       G#
Eb|------------------------------------------------|"heto na tayo!!!.."
Bb|------------------------------------------------|
Gb|------------------------------------------------|
Db|-4--4--4--4--4--4--4--4--7--7--7--7--7--7--7--7-|
Ab|-4--4--4--4--4--4--4--4--7--7--7--7--7--7--7--7-|
Eb|-2--2--2--2--2--2--2--2--5--5--5--5--5--5--5--5-|

----------------------------------------------------------------------------

Reapeat Chorus

this riff will be played by Gtr.2(Armo) at the second
part of the chorus... "wag kang bibitiw bigla,pikit ang iyong mga mata..."
Eb|-----------------------------------------------------------------|
Bb|-----------------------------------------------------------------|
Gb|-9--9-9--9--9-9--9s11-11-11-11--13---14---13---14---13---14---13-|
Db|-x--x-x--x--x-x--xs-x--x--x--x---x----x----x----x----x----x----x-|
Ab|-7--7-7--7--7-7--7s-9--9--9--9--11---12---11---12---11---12---11-|
Eb|-----------------------------------------------------------------|

Eb|----------------------------------------------|
Bb|----------------------------------------------|
Gb|-18-18-18-18-18-18-18-18-18-18-18-18-18-18-18-|
Db|--x--x--x--x--x--x--x--x--x--x--x--x-x---x--x-|
Ab|-16-16-16-16-16-16-16-16-16-16-16-16-16-16-16-|
Eb|----------------------------------------------|


----------------------------------------------------------------------------
outro:

guitar 1 plays the chords from the chorus
(Eb,G,F,Ab),while Gtr.2 plays the above riff
2 times.

then,
guitar 2 does this outro:

Eb|-------------------------|
Ab|-------------------------|
Db|-------------------------|
Gb|-x-x-x-x-x-x-x-x-x-x-x-x-|
Bb|-4-4-2-4-2-4-2-4-2-4s6-6-|
Eb|-x-x-x-x-x-x-x-x-x-x-x-x-|

sabay ung dalawa...
    Eb
Eb|----|
Ab|----|
Db|----|
Gb|-2~-|
Bb|-2~-|
Eb|-0~-|
----------------------------------------------------------------------------

Take Note Pipol!

For the lead guitar, you can use the higher form(tone)
of the chords in the chorus (Eb,G,F,Ab) ito un:

     Eb         G           F           G#
Eb|-----|  Eb|------|  Eb|------|  Eb|------|
Bb|-----|  Bb|------|  Bb|------|  Bb|------|
Gb|--9--|  Gb|--13--|  Gb|--11--|  Gb|--14--|
Db|--9--|  Db|--13--|  Db|--11--|  Db|--14--|
Ab|--7--|  Ab|--11--|  Ab|--9---|  Ab|--12--|
Eb|-----|  Eb|------|  Eb|------|  Eb|------|
----------------------------------------------------------------------------

well, that's it!!! rate nyo naman plees(=)!

lyrics:
 
Verse1:

Tama, walang laglagan at 
sama-samang
hahanapin ang liwanag at
tayo'y magpapaalon sa
isang daluyong na maghahatid sa atin sa,

Pre-chorus:

isang mahabang panaghinip,
di na hihinto!!!

Chorus:

Wag kang bibitiw bigla,
wag kang bibitiw bigla,
higpitan lang ang iyong kapit
maglalayag patungong langit!

na na....

Verse2:

Teka, kaya ba natin 'to?
kung hindi na'ay aakayin at itatayo...
'yun yon!
kaya hanggang ngayon,
tuloy tuloy tuloy tuloy tuloy!!!

Chorus:

Wag kang bibitiw bigla,
wag kang bibitiw bigla,
higpitan lang ang iyong kapit
maglalayag patungong langit!

wag kang bibitiw bigla,
pikit ang iyong mga mata!
higpitan lang ang iyong kapit
maglalayag patungong langit!

Bridge:

Ating tinig, ating himig,
abot langit

heto na tayo!!!(heto na tayo!!!)
heto na tayo!!!!!(heto na tayo!!!!)

Chorus:

Wag kang bibitiw bigla,
wag kang bibitiw bigla,
higpitan lang ang iyong kapit
maglalayag patungong langit!

wag kang bibitiw bigla,
pikit ang iyong mga mata!
higpitan lang ang iyong kapit
maglalayag patungong langit!

Outro:

heto na tayo!!!(heto na tayo!!!)
heto na tayo!!!!!(heto na tayo!!!!)

wahhhhhhhhhhoooo!!!!

enjoy!
Related for Bitiw tab
Bitiw chords by Sponge Cola