Song name
# A B C D E F G H I J K L M N O P Q R S T U V W X Y Z

Sponge Cola - Pasubali tab

artist:spongecola
title:pasubali
tabber:vincent ken b. albarda
BSIT LNU
half-step tuning 2 hah!!!
  
dnddcate ko to sa x-gf ko na c evy ressurriccion

INTRO

eb|---------------------------------------------------|
Bb|---------------------------------------------------|
Gb|-44444444-/88888888-----------4---4-6-3---3-4------|
Db|-44444444-/88888888-66666666\---6-------4----------|
Ab|-22222222-/66666666-66666666\----------------------|
Eb|--------------------44444444\----------------------|

GTR I
eb|-------------|------------|------------|--------------|
Bb|-------------|------------|------------|--------------|
Gb|---44444444--|--88888888--|------------|--------------|
Db|---44444444--|--88888888--|--66666666--|--55555555----|
Ab|---22222222--|--66666666--|--66666666--|--55555555----|
Eb|-------------|------------|--44444444--|--33333333----|
GTR II
eb|-------------|------------|------------|--------------|
Bb|-------------|------------|------------|--------------|
Gb|-------------|------------|------------|--------------|
Db|-------------|------------|------------|--------------|
Ab|-/66-44-22-44|-66-44-22-44|-66-44-22-44|-66-44-22-44--|
Eb|-------------|------------|------------|--------------|


GTR I
eb|-------------|------------|------------|--------------|
Bb|-------------|------------|------------|--------------|
Gb|---44444444--|--88888888--|------------|-444-444444---|
Db|---44444444--|--88888888--|--66666666--|-444-333333---|
Ab|---22222222--|--66666666--|--66666666--|-222-111111---|
Eb|-------------|------------|--44444444--|--------------|
Guitar 2:
eb|-----------------------------------------------------------------------|
Bb|-----------------------------------------------------------------------|
Gb|-11-11-99-88-99--11-11-99-88-99--11-11-99-88-99-11-11-99-88-99-11-11---|
Db|-----------------------------------------------------------------------|
Ab|-/9--9-77-66-77---9--9-77-66-77--9--9--77-66-77--9--9-77-66-77--9-9----|
Eb|-----------------------------------------------------------------------|


VERSE

eb|-7-7-7-7-7-7--6-6-6-6-6-6--0-0-0-0-0-0--2-2--2-2--------------|
Bb|-7-7-7-7-7-7--7-7-7-7-7-7--0-0-0-0-0-0--2-2--4-4--------------|
Gb|-8-8-8-8-8-8--8-8-8-8-8-8--1-1-1-1-1-1--4-4--4-4--------------|
Db|-9-9-9-9-9-9--8-8-8-8-8-8--2-2-2-2-2-2--4-4--4-4--------------|
Ab|-9-9-9-9-9-9--6-6-6-6-6-6--2-2-2-2-2-2--2-2--2-2--------------|
Eb|-7-7-7-7-7-7---------------0-0-0-0-0-0------------------------|

B                                  Ebm
Kung pwede lang  wag mo na 'tong iwasan
     E                      B9-B
At -wag mo ring ituring na biro
B                        Ebm
marahil 'to'y 'di mo inaasahan
     E                      B9-B
pero sana'y 'wag ipinid ang pinto

REFRAIN
    G#m     F#      E
eb|----------------------------------------|
Bb|----------------------------------------|
Gb|----------------------------------------|
Db|--6~6----4-4-4---2-2-2-2-2-2-2----------|
Ab|--6-6----4-4-4---2-2-2-2-2-2-2----------|
Eb|--4-4----2-2-2---0-0-0-0-0-0-0----------|
G#m         F#
Itikom ang bibig
E
Mata'y ibaling sa 'kin

    G#m     F#      E              E
eb|-----------------------------------------------|
Bb|-----------------------------------------------|
Gb|--------------------------------x-x-x-x-x-x-x--|
Db|--6~6----4-4-4---2-2-2-2-2-2-2--9-9-9-9-9-9-9--|
Ab|--6-6----4-4-4---2-2-2-2-2-2-2--7-7-7-7-7-7-7--|
Eb|--4-4----2-2-2---0-0-0-0-0-0-0-----------------|
G#m               F#        E
Pakinggan mo ang sasabihin ko

CHORUS
    B            Ebm          G#m          G
eb|--------------------------------------------------------|
Bb|----------------------------------------3-3-3-3-3-3-----|
Gb|--------------8-8-8-8-8-8---------------4-4-4-4-4-4-----|
Db|-9-9-9-9-9-9--8-8-8-8-8-8--6-6-6-6-6-6--5-5-5-5-5-5-----|
Ab|-9-9-9-9-9-9--6-6-6-6-6-6--6-6-6-6-6-6--5-5-5-5-5-5-----|
Eb|-7-7-7-7-7-7---------------4-4-4-4-4-4------------------|
B
Kailan mo ba matututunan?
Ebm
kailan mo ba 'pagsisigawang
G#m                     G
Di mo na 'pagkakailang tayo

    B            Ebm          G#m         B     C#m   Bb
eb|--------------------------------------------------------|
Bb|--------------------------------------------------------|
Gb|--------------8-8-8-8-8-8--------------4-4-/-6----\-3-3-|
Db|-9-9-9-9-9-9--8-8-8-8-8-8--6-6-6-6-6-6-4-4-/-6----\-3-3-|
Ab|-9-9-9-9-9-9--6-6-6-6-6-6--6-6-6-6-6-6-2-2-/-4----\-1-1-|
Eb|-7-7-7-7-7-7---------------4-4-4-4-4-4------------------|
B
Kay rami nang pinagdaanan
Eb
Ano pa bang 'yong kailangan?
G#m                      B C#m-Bb
Nagsusumamo na sabihin mo

INTERLUDE
GTR I

eb|-7-7-7-7-7-7--6-6-6-6-6-6--0-0-0-0-0-0--2-2--2-2--------|
Bb|-7-7-7-7-7-7--7-7-7-7-7-7--0-0-0-0-0-0--2-2--4-4--------|
Gb|-8-8-8-8-8-8--8-8-8-8-8-8--1-1-1-1-1-1--4-4--4-4--------|
Db|-9-9-9-9-9-9--8-8-8-8-8-8--2-2-2-2-2-2--4-4--4-4--------|
Ab|-9-9-9-9-9-9--6-6-6-6-6-6--2-2-2-2-2-2--2-2--2-2--------|
Eb|-7-7-7-7-7-7---------------0-0-0-0-0-0------------------|

GTR II
eb|-2------------2------------2----------4-----------------|
Bb|----4------------4-------------4------------5---4--4----|
Gb|--------------------------------------------------------|
Db|--------------------------------------------------------|
Ab|--------------------------------------------------------|
Eb|--------------------------------------------------------|

VERSE
GTR I
    B		    Ebm             E              Bm   B
eb|-7-7-7-7-7-7-----6-6-6-6-6-6-----0-0-0-0-0-0----2-2--2-2|
Bb|-7-7-7-7-7-7-----7-7-7-7-7-7-----0-0-0-0-0-0----2-2--4-4|
Gb|-8-8-8-8-8-8-----8-8-8-8-8-8-----1-1-1-1-1-1----4-4--4-4|2x
Db|-9-9-9-9-9-9-----8-8-8-8-8-8-----2-2-2-2-2-2----4-4--4-4|
Ab|-9-9-9-9-9-9-----6-6-6-6-6-6-----2-2-2-2-2-2----2-2--2-2|
Eb|-7-7-7-7-7-7---------------------0-0-0-0-0-0------------|
GTR II
eb|7-7-7-7-7-7-7-7-6-6-6-6-6-6-6-6-x-x-x-x-x-x-x-x---------|
Bb|7-7-7-7-7-7-7-7-7-7-7-7-7-7-7-7-5-5-5-5-5-5-5-5---5-4-4-|
Gb|8-8-8-8-8-8-8-8-8-8-8-8-8-8-8-8-4-4-4-4-4-4-4-4---------|
Db|--------------------------------2-2-2-2-2-2-2-2---------|2x
Ab|--------------------------------------------------------|
Eb|--------------------------------------------------------|
B                     Ebm
Ang diwa ko'y tigib sa kakaisip
  E                       Bm-B
Sa sarili'y laging may kinikimkim
B                     Ebm
Patuloy lamang bang mananaginip
  E                       Bm-B
At mananatili lang na nakapikit

REFRAIN
    G#m     F#      E
eb|----------------------------------------|
Bb|----------------------------------------|
Gb|----------------------------------------|
Db|--6~6----4-4-4---2-2-2-2-2-2-2----------|
Ab|--6-6----4-4-4---2-2-2-2-2-2-2----------|
Eb|--4-4----2-2-2---0-0-0-0-0-0-0----------|
G#m         F#
Akoy mayrong batid
E
Itoy iyong pag amin

    G#m     F#      E              E
eb|-----------------------------------------------|
Bb|-----------------------------------------------|
Gb|--------------------------------x-x-x-x-x-x-x--|
Db|--6~6----4-4-4---2-2-2-2-2-2-2--9-9-9-9-9-9-9--|
Ab|--6-6----4-4-4---2-2-2-2-2-2-2--7-7-7-7-7-7-7--|
Eb|--4-4----2-2-2---0-0-0-0-0-0-0-----------------|
G#m              F#        E
Hindi na natin maiiwasan to


CHORUS
    B            Ebm          G#m          G
eb|--------------------------------------------------------|
Bb|----------------------------------------3-3-3-3-3-3-----|
Gb|--------------8-8-8-8-8-8---------------4-4-4-4-4-4-----|
Db|-9-9-9-9-9-9--8-8-8-8-8-8--6-6-6-6-6-6--5-5-5-5-5-5-----|
Ab|-9-9-9-9-9-9--6-6-6-6-6-6--6-6-6-6-6-6--5-5-5-5-5-5-----|
Eb|-7-7-7-7-7-7---------------4-4-4-4-4-4------------------|
B
Kailan mo ba matututunan
Eb
kailan mo ba 'pagsisigawang
G#m                     G
Di mo na 'pagkakailang tayo


    B            Ebm          G#m         B     C#m   Bb
eb|--------------------------------------------------------|
Bb|--------------------------------------------------------|
Gb|--------------8-8-8-8-8-8--------------4-4-/-6----\-3-3-|
Db|-9-9-9-9-9-9--8-8-8-8-8-8--6-6-6-6-6-6-4-4-/-6----\-3-3-|
Ab|-9-9-9-9-9-9--6-6-6-6-6-6--6-6-6-6-6-6-2-2-/-4----\-1-1-|
Eb|-7-7-7-7-7-7---------------4-4-4-4-4-4------------------|
B
Kay rami nang pinagdaanan
Eb
Ano pa bang 'yong kailangan?
G#m                      B C#m-Bb
Nagsusumamo na sabihin mo

REFRAIN
    G#m     F#      E
eb|----------------------------------------|
Bb|----------------------------------------|
Gb|----------------------------------------|
Db|--6~6----4-4-4---2-2-2-2-2-2-2----------|
Ab|--6-6----4-4-4---2-2-2-2-2-2-2----------|
Eb|--4-4----2-2-2---0-0-0-0-0-0-0----------|
G#m         F#
Akoy mayrong batid
E
Itoy iyong pag amin

    G#m     F#      E              E
eb|-----------------------------------------------|
Bb|-----------------------------------------------|
Gb|--------------------------------x-x-x-x-x-x-x--|
Db|--6~6----4-4-4---2-2-2-2-2-2-2--9-9-9-9-9-9-9--|
Ab|--6-6----4-4-4---2-2-2-2-2-2-2--7-7-7-7-7-7-7--|
Eb|--4-4----2-2-2---0-0-0-0-0-0-0-----------------|
G#m              F#        E
Hindi na natin maiiwasan to

Interlude
GTR II
   F#       G        G#m      G
eb|------------------------------------------------|
Bb|--------0--------0--------0--------0-0----------|
Gb|------------------------------------------------| 3x
Db|-----4--------5--------6--------5------5--------|
Ab|---4--------5--------6--------5-----------------|
Eb|-2--------3--------4--------3-------------------|

GTR I papasok 2 sa 3rd Round ng INterlude
eb|------------------------------------------------------|
Bb|------------------------------------------------------|
Gb|------------------------------------------------------|
Db|44444444--55555555-66666666-55555555-5-5-5-5-5-5-5-5--|
Ab|44444444--55555555-66666666-55555555-5-5-5-5-5-5-5-5--|
Eb|22222222--33333333-44444444-33333333-3-3-3-3-3-3-3-3--|

eb|-------------------------------------------------------|
Bb|-------------------------------------------------------|
Gb|-------------------------------------------------------|
Db|-------------------------------------------------------|
Ab|--2-/7\------------------------------------------------|
Eb|-------------------------------------------------------|
   naiintindihan mo Ba?....


CHORUS
    B            Ebm          G#m          G
eb|--------------------------------------------------------|
Bb|----------------------------------------3-3-3-3-3-3-----|
Gb|--------------8-8-8-8-8-8---------------4-4-4-4-4-4-----|
Db|-9-9-9-9-9-9--8-8-8-8-8-8--6-6-6-6-6-6--5-5-5-5-5-5-----|
Ab|-9-9-9-9-9-9--6-6-6-6-6-6--6-6-6-6-6-6--5-5-5-5-5-5-----|
Eb|-7-7-7-7-7-7---------------4-4-4-4-4-4------------------|
B
Kailan mo ba matututunan?
Eb
kailan mo ba 'pagsisigawang
G#m                     G
Di mo na 'pagkakailang tayo?

    B            Ebm          G#m         B     C#m   Bb
eb|--------------------------------------------------------|
Bb|--------------------------------------------------------|
Gb|--------------8-8-8-8-8-8--------------4-4-/-6----\-3-3-|
Db|-9-9-9-9-9-9--8-8-8-8-8-8--6-6-6-6-6-6-4-4-/-6----\-3-3-|
Ab|-9-9-9-9-9-9--6-6-6-6-6-6--6-6-6-6-6-6-2-2-/-4----\-1-1-|
Eb|-7-7-7-7-7-7---------------4-4-4-4-4-4------------------|
B
Kay rami nang pinagdaanan
Eb
Ano pa bang 'yong kailangan?
G#m                      B C#m-Bb
Nagsusumamo na sabihin mo

OUTRO
GTR I
eb|-------------|------------|------------|--------------|
Bb|-------------|------------|------------|--------------|
Gb|---44444444--|--88888888--|------------|-444-444444---|
Db|---44444444--|--88888888--|--66666666--|-444-333333---|
Ab|---22222222--|--66666666--|--66666666--|-222-111111---|
Eb|-------------|------------|--44444444--|--------------|
GTR II
eb|-----------------------------------------------------------------------|
Bb|-----------------------------------------------------------------------|
Gb|-11-11-99-88-99--11-11-99-88-99--11-11-99-88-99-11-11-99-88-99-11-11---|
Db|-----------------------------------------------------------------------|
Ab|-/9--9-77-66-77---9--9-77-66-77--9--9--77-66-77--9--9-77-66-77--9-9----|
Eb|-----------------------------------------------------------------------|

eb|---------------------------------------------------|
Bb|---------------------------------------------------|
Gb|-44444444-/88888888-----------4---4-6-3---3-4------|
Db|-44444444-/88888888-66666666\---6-------4----------|
Ab|-22222222-/66666666-66666666\----------------------|
Eb|--------------------44444444\----------------------|
Tap to rate this tab
 
# A B C D E F G H I J K L M N O P Q R S T U V W X Y Z