Song name
# A B C D E F G H I J K L M N O P Q R S T U V W X Y Z

Sponge Cola - All We Need tab

Help us improve GuitareTab! Take a short survey!
Title       : All we need
Artist      : Sponge cola

Ear tabber  : ROGEM S. BATTUNG
Address     : Palawan St. Sampaloc Manila
E-mail add 1: Guitarizta_rogem@yahoo.com
Contact no  : 09103887102

School      : EARIST B.S. APPLIED PHYSICS-1
Time Elapsed: 
Date        : Dec 16 2006

this is Gunita part of their new Album named Transit if you want the complete 
tabs of the Album just type in the "song name" inputbar "Transit"
 

"""makikita nyo naman name ko dun ehh qng sino gumawa"""

|==========================================================================|
|============================READ FIRST====================================|
|==========================================================================|

ROGEM -> sa mga chord user na Gusto matuto na gumamit ng tab my instruction
         send kyo ng message sa Friendster " Guitarizta_rogem@yahoo.com or 
         Email nyo ako Guitarizta_gem@yahoo.com sabihin nyo kung kailangan 
         nyo ng Instruction sa pagbasa ng Tab forward ko sa inyo T.y.

ROGEM -> Gumawa ako ng dalwang tunning n2 ung naka E-Stadard & naka Eb   
         gumawa ako nun para sa hindi pa marunong mag tono ng Eb-tunning..
         pero mas reccomend ko pa din Eb kc dun talaga nila ginawa ung song
         
ROGEM -> Dedicate ko ulit 2 sa lahat ng Friends ko lahat ng BS APPLIED 
         PHYSICS mga BS. COMPUTER SCIENCE mga BS. MATH at mga BS.PSYCHOLOGY 
         lahat ng taga C.A.S. at lahat ng taga EARIST hehehe

ROGEM -> any suggestion and Comment txt 09103887102 send kyo ng Msj sa 
         Friendster Guitarizta_rogem@yahoo.com


|==================================================|
|==================================================|
|						   |
|                   ALL WE NEED-E                  |
|						   |
|==================================================|
|==================================================|

Transcribed by: ROGEM S. BATTUNG
School        : EARIST B.S. APPLIED PHYSICS 
Time Elapsed  : 3:30-4:00am
Date          : Dec 17 2006
Contact no    : 09103887102


INTRO

e|----------------------------------------------------|
B|----------------------------------------------------|
G|-6-x-6----------------------------------------------|
D|-6-x-6---3-x-3---8-x-8---6-x-6---4-x-4--------------|
A|-4-x-4---3-x-3---8-x-8---6-x-6---4-x-4--------------|
E|---------1-x-1---6-x-6---4-x-4---2-x-2--------------|
GTR I
    C#              Fm             F#          G#
e|------------------------------------------------------|
B|------------------------------------------------------|
G|-666666666--------------------------------------------|2x
D|-666666666-----333333333-----444444444-----666666666--|
A|-444444444-----333333333-----444444444-----666666666--|
E|---------------111111111-----222222222-----444444444--|
GTR II
e|----9---|
B|-11-----|
G|--------|
D|--------|
A|--------|
E|--------|

ROGEM - gawin nyo 2 sa bawat chords ha
GTR II
 RIFF 1 C# repeat 2x||RIFFF 2 Fm  rep.2x ||RIFF 3 F# rep.2x||RIFF 4--G#
||
e|------------------||-------------------||----------------||---999---9-7s9-||
B|---------9-9-9----||---------9-9-9-----||-------9-9-9----||777---777------||
G|------------------||-------------------||----------------||---------------||
D|-11-11-11---------||-10-10-10----------||-8-8-8----------||---------------||
A|------------------||-------------------||----------------||---------------||
E|------------------||-------------------||----------------||---------------||

VERSE
GTR I
    C#              Fm             F#          G#
e|------------------------------------------------------|
B|------------------------------------------------------|
G|-666666666--------------------------------------------|2x
D|-666666666-----333333333-----444444444-----666666666--|
A|-444444444-----333333333-----444444444-----666666666--|
E|---------------111111111-----222222222-----444444444--|

Been turning a blind eye for the longest time
Still I see where this is headed
And my mind is going should I risk it?

Its all been said and done before
Honestly Im out of patience
For anymore of your excuses

REFRAIN
GTR I
   F#          G#         Bbm        G#    F#      G#
e|-----------------------------------------------------|
B|-----------------------------------------------------|
G|-----------------------------------------------------|
D|-444444444--666666666--888888888--6666-444444-66666\-|
A|-444444444--666666666--888888888--6666-444444-66666\-|
E|-222222222--444444444--666666666--4444-222222-44444\-|
F#
Kicking and screaming inside lies a feeling
G#
One lowly voice against a backdrop of noise
Bbm
Am I on my own
G#                  F#  G#
Tonight ill let you know

CHORUS

GTR I
   C#              G#             Bbm           F#
e|------------------------------------------------------|
B|------------------------------------------------------|
G|-666666666--------------------------------------------|
D|-666666666-----666666666-----888888888-----555555555--|
A|-444444444-----666666666-----888888888-----555555555--|
E|---------------444444444-----666666666-----333333333--|
GTR II
   C#              G#             Bbm           F#
e|------------------------------------------------------|
B|------------------------------------------------------|
G|-666666666-----888888888-----10-10-10-10---11-11-11-11|
D|-xxxxxxxxx-----xxxxxxxxx------x--x--x--x----x--x--x--x|
A|-444444444-----666666666------8--8--8--8----9--9--9--9|
E|------------------------------------------------------|
C#
I light the fire for those of us who wept
G#                              Bbm
for all the heartache that we felt and this is all we need
F#
This is all I need

GTR I
   C#            F            Bbm        G#m       F#m     G#m
e|--------------------------------------------------------------|
B|--------------------------------------------------------------|
G|-666666666----------------------------------------------------|
D|-666666666--333333333-----888888888--666666666-444444-666666--|
A|-444444444--333333333-----888888888--666666666-444444-666666--|
E|------------111111111-----666666666--444444444-222222-444444--|
ROGEM - > ung GTR II STRUMMING UN HA
GTR II
   C#            F          Bbm        G#m       F#m     G#m
e|--------------------------------------------------------------|
B|--------------------------------------------------------------|
G|-6----------10-----------15----------13--------11-----13------|
D|-x-----------x------------x-----------x--------x-------x------|
A|-4-----------8------------8----------11--------9------11------|
E|--------------------------------------------------------------|
C#                             F
I sing along with each and everyone beneath the sorrow lies
Bbm              G#m                 F#m             G#m
Someone whos reaching out for a hand whos reaching too

VERSE II
GTR I
    C#              Fm             F#          G#
e|------------------------------------------------------|
B|------------------------------------------------------|
G|-666666666--------------------------------------------|2x
D|-666666666-----333333333-----444444444-----666666666--|
A|-444444444-----333333333-----444444444-----666666666--|
E|---------------111111111-----222222222-----444444444--|
A common tale if truth be told
Familiar as it seems
My story lies between

REFRAIN

GTR I
   F#          G#         Bbm        G#    F#      G#
e|-----------------------------------------------------|
B|-----------------------------------------------------|
G|-----------------------------------------------------|
D|-444444444--666666666--888888888--6666-444444-66666\-|
A|-444444444--666666666--888888888--6666-444444-66666\-|
E|-222222222--444444444--666666666--4444-222222-44444\-|
F#
Silent and seamless the sound of my weakness
G#
Is drowned on the noise of a world with no voice
Bbm
And I take it all
G#                      F#   G#
TOnight the night will know


CHORUS

GTR I
   C#              G#             Bbm           F#
e|------------------------------------------------------|
B|------------------------------------------------------|
G|-666666666--------------------------------------------|
D|-666666666-----666666666-----888888888-----555555555--|
A|-444444444-----666666666-----888888888-----555555555--|
E|---------------444444444-----666666666-----333333333--|
GTR II
   C#              G#             Bbm           F#
e|------------------------------------------------------|
B|------------------------------------------------------|
G|-666666666-----888888888-----10-10-10-10---11-11-11-11|
D|-xxxxxxxxx-----xxxxxxxxx------x--x--x--x----x--x--x--x|
A|-444444444-----666666666------8--8--8--8----9--9--9--9|
E|------------------------------------------------------|
C#
I light the fire for those of us who wept
G#                              Bbm
for all the heartache that we felt and this is all we need
F#
This is all I need

GTR I
   C#         F          Bbm       G#m   F#m    G#m   F#m   G#m
e|--------------------------------------------------------------|
B|--------------------------------------------------------------|
G|-666666666----------------------------------------------------|
D|-666666666-333333333-888888888-666666-444444-666666-4444-6666-|
A|-444444444-333333333-888888888-666666-444444-666666-4444-6666-|
E|-----------111111111-666666666-444444-222222-444444-2222-4444-|
ROGEM - > ung GTR II STRUMMING UN HA
GTR II
   C#          F        Bbm        G#m    F#m  G#m     F#m   G#m
e|--------------------------------------------------------------|
B|--------------------------------------------------------------|
G|-7---------11--------16---------14-----12---14-----12---14----|
D|-x----------x---------x----------x------x----x------x----x----|
A|-5----------9---------9---------12-----10---10-----10---10----|
E|--------------------------------------------------------------|
C#                            F
I sing along with each and everyone beneath the sorrow lies
Bbm              G#m                 F#m                    G#m
Someone whos reaching out for a hand whos reaching too
F#m   G#m
Too

BRIDGE
GTR I
e|----------|----------|----------|----------|
B|----------|----------|----------|----------|
G|--6~~~~~x-|---5~~~~~x|---3~~~~~x|----------|
D|--6~~~~~x-|---6~~~~~x|---3~~~~~x|-4444444--|
A|--4~~~~~x-|---3~~~~~x|---1~~~~~x|-4444444--|
E|----------|----------|----------|-2222222--|
C# (pause)
Take flight when the nightlight's out of sight
D/C (pause)
Take flight just go and take the night
Bbm (pause)
Take flight as we share this drink tonight
F#m
Take flight its our fight I fight tonight

GTR I
e|-------------|-------------|------------|------------|
B|-------------|-------------|------------|------------|
G|--666666666--|--5555555555-|---33333333-|------------|
D|--666666666--|--6666666666-|---33333333-|-4444444444-|
A|--444444444--|--3333333333-|---11111111-|-4444444444-|
E|-------------|-------------|------------|-3222222222-|
GTR II
e|-------------|-------------|------------|------------|
B|-------------|-------------|------------|------------|
G|---111---111-|---111---111-|---111---111|---666---666|
D|-------------|-------------|------------|444---444---|
A|444---444----|333---333----|111---111---|------------|
E|-------------|-------------|------------|------------|
C#
Take flight when the nightlight's out of sight
D/C
Take flight just go and take the night
Bbm,
Take flight as we share this drink tonight
F#m
Take flight its our fight I fight tonight

GTR I
e|-------------|-------------|------------|------------|
B|-------------|-------------|------------|------------|
G|--777777777--|--6666666666-|---44444444-|------------|
D|--777777777--|--7777777777-|---44444444-|-5555555555-|
A|--555555555--|--4444444444-|---22222222-|-5555555555-|
E|-------------|-------------|------------|-3333333333-|
GTR II
e|-------------|-------------|------------|------------|
B|-------------|-------------|------------|------------|
G|---222---222-|---222---222-|---222---222|---777---777|
D|-------------|-------------|------------|555---555---|
A|555---555----|444---444----|222---222---|------------|
E|-------------|-------------|------------|------------|
D
Take flight when the nightlight's out of sight
D/Db
Take flight just go and take the night
Bm
Take flight as we share this drink tonight
G
Take flight its our fight I fight tonight

REFRAIN
GTR I
   F#          G#         Bbm        G#    F#      G#
e|-----------------------------------------------------|
B|-----------------------------------------------------|
G|-----------------------------------------------------|
D|-444444444--666666666--888888888--6666-444444-66666\-|
A|-444444444--666666666--888888888--6666-444444-66666\-|
E|-222222222--444444444--666666666--4444-222222-44444\-|
F#
Kicking and screaming inside lies a feeling
G#
One lowly voice against a backdrop of noise
Bbm
Am I on my own
G#                  F#  G#
Tonight ill let you know

CHORUS

GTR I
   C#              G#             Bbm           F#
e|------------------------------------------------------|
B|------------------------------------------------------|
G|-666666666--------------------------------------------|
D|-666666666-----666666666-----888888888-----555555555--|
A|-444444444-----666666666-----888888888-----555555555--|
E|---------------444444444-----666666666-----333333333--|
GTR II
   C#              G#             Bbm           F#
e|------------------------------------------------------|
B|------------------------------------------------------|
G|-666666666-----888888888-----10-10-10-10---11-11-11-11|
D|-xxxxxxxxx-----xxxxxxxxx------x--x--x--x----x--x--x--x|
A|-444444444-----666666666------8--8--8--8----9--9--9--9|
E|------------------------------------------------------|
C#
I light the fire for those of us who wept
G#                              Bbm
for all the heartache that we felt and this is all we need
F#
This is all I need

GTR I
   C#            F            Bbm        G#m       F#m     G#m
e|--------------------------------------------------------------|
B|--------------------------------------------------------------|
G|-666666666----------------------------------------------------|
D|-666666666--333333333-----888888888--666666666-444444-666666--|
A|-444444444--333333333-----888888888--666666666-444444-666666--|
E|------------111111111-----666666666--444444444-222222-444444--|
ROGEM - > ung GTR II STRUMMING UN HA
GTR II
   C#            F          Bbm        G#m       F#m     G#m
e|--------------------------------------------------------------|
B|--------------------------------------------------------------|
G|-6----------10-----------15----------13--------11-----13------|
D|-x-----------x------------x-----------x--------x-------x------|
A|-4-----------8------------8----------11--------9------11------|
E|--------------------------------------------------------------|
C#                             F
I sing along with each and everyone beneath the sorrow lies
Bbm              G#m                 F#m             G#m
Someone whos reaching out for a hand whos reaching too

C#  D/C Bbm F#m (2x)
   You.

End with F#

ROGEM -> any suggestion and Comment txt 09103887102 send kyo ng Msj sa 
         Friendster Guitarizta_rogem@yahoo.com

|==========================================================================|
|==========================================================================|
|==========================================================================|

this is Gunita part of their new Album named Transit if you want the complete 
tabs of the Album just type in the "song name" inputbar "Transit"
 

"""makikita nyo naman name ko dun ehh qng sino gumawa"""

|==================================================|
|==================================================|
|						   |
|                   ALL WE NEED                    |
|						   |
|==================================================|
|==================================================|

Transcribed by: ROGEM S. BATTUNG
School        : EARIST B.S. APPLIED PHYSICS 
Time Elapsed  : 3:30-4:00am
Date          : Dec 17 2006
Contact no    : 09103887102

INTRO

eb|----------------------------------------------------|
Bb|----------------------------------------------------|
Gb|-7-x-7----------------------------------------------|
Db|-7-x-7---4-x-4---9-x-9---7-x-7---5-x-5--------------|
Ab|-5-x-5---4-x-4---9-x-9---7-x-7---5-x-5--------------|
Eb|---------2-x-2---7-x-7---5-x-5---3-x-3--------------|
GTR I
   D              F#m              G                A
eb|------------------------------------------------------|
Bb|------------------------------------------------------|
Gb|-777777777--------------------------------------------|2x
Db|-777777777-----444444444-----555555555-----777777777--|
Ab|-555555555-----444444444-----555555555-----777777777--|
Eb|---------------222222222-----333333333-----555555555--|
GTR II
eb|----10--|
Bb|-12-----|
Gb|--------|
Db|--------|
Ab|--------|
Eb|--------|

ROGEM - gawin nyo 2 sa bawat chords ha
GTR II
  RIFF 1  D repeat 2x||RIFFF 2 F#m rep.2x ||RIFF 3 G rep.2x ||RIFF 4
A         ||
eb|------------------||-------------------||----------------||---101010---10-8s10||
Bb|---------10-10-10-||---------10-10-10--||-------10-10-10-||888------888-------||
Gb|------------------||-------------------||----------------||-------------------||
Db|-12-12-12---------||-11-11-11----------||----------------||-------------------||
Ab|------------------||-------------------||-9-9-9----------||-------------------||
Eb|------------------||-------------------||----------------||-------------------||

VERSE
GTR I
   D              F#m              G                A
eb|------------------------------------------------------|
Bb|------------------------------------------------------|
Gb|-777777777--------------------------------------------|2x
Db|-777777777-----444444444-----555555555-----777777777--|
Ab|-555555555-----444444444-----555555555-----777777777--|
Eb|---------------222222222-----333333333-----555555555--|

Been turning a blind eye for the longest time
Still I see where this is headed
And my mind is going should I risk it?

Its all been said and done before
Honestly Im out of patience
For anymore of your excuses

REFRAIN
GTR I
   G           A          Bm         A    G       A
eb|-----------------------------------------------------|
Bb|-----------------------------------------------------|
Gb|-----------------------444444444---------------------|
Db|-555555555--777777777--444444444--7777-555555-77777\-|
Ab|-555555555--777777777--222222222--7777-555555-77777\-|
Eb|-333333333--555555555-------------5555-333333-55555\-|
G
Kicking and screaming inside lies a feeling
A
One lowly voice against a backdrop of noise
Bm
Am I on my own
A                   G  A
Tonight ill let you know

CHORUS

GTR I
   D              A             Bm               G
eb|------------------------------------------------------|
Bb|------------------------------------------------------|
Gb|-777777777-------------------444444444----------------|
Db|-777777777-----777777777-----444444444-----555555555--|
Ab|-555555555-----777777777-----222222222-----555555555--|
Eb|---------------555555555-------------------333333333--|
GTR II
   D              A             Bm               G
eb|------------------------------------------------------|
Bb|------------------------------------------------------|
Gb|-777777777-----999999999-----11-11-11-11---12-12-12-12|
Db|-xxxxxxxxx-----xxxxxxxxx------x--x--x--x----x--x--x--x|
Ab|-555555555-----777777777------9--9--9--9---10-10-10-10|
Eb|------------------------------------------------------|
D
I light the fire for those of us who wept
A                              Bm
for all the heartache that we felt and this is all we need
G
This is all I need

GTR I
   D            F#m          Bm         A         G      A
eb|--------------------------------------------------------------|
Bb|--------------------------------------------------------------|
Gb|-777777777----------------------------------------------------|
Db|-777777777--444444444-----999999999--777777777-555555-777777--|
Ab|-555555555--444444444-----999999999--777777777-555555-777777--|
Eb|------------222222222-----777777777--555555555-333333-555555--|
ROGEM - > ung GTR II STRUMMING UN HA
GTR II
   D           F#m          Bm           A        G      A
eb|--------------------------------------------------------------|
Bb|--------------------------------------------------------------|
Gb|-7----------11-----------16----------14-------12-----14-------|
Db|-x-----------x------------x-----------x--------x------x-------|
Ab|-5-----------9------------9----------12-------10-----10-------|
Eb|--------------------------------------------------------------|
D                            F#m
I sing along with each and everyone beneath the sorrow lies
Bm              A                 G                    A
Someone whos reaching out for a hand whos reaching too

VERSE II
GTR I
   D              F#m              G                A
eb|------------------------------------------------------|
Bb|------------------------------------------------------|
Gb|-777777777--------------------------------------------|2x
Db|-777777777-----444444444-----555555555-----777777777--|
Ab|-555555555-----444444444-----555555555-----777777777--|
Eb|---------------222222222-----333333333-----555555555--|
A common tale if truth be told
Familiar as it seems
My story lies between

REFRAIN

GTR I
   G           A          Bm         A          G       A
eb|----------------------------------------------------------|
Bb|----------------------------------------------------------|
Gb|-----------------------444444444--------------------------|
Db|-555555555--777777777--444444444--777777777-555555-77777\-|
Ab|-555555555--777777777--222222222--777777777-555555-77777\-|
Eb|-333333333--555555555-------------555555555-333333-55555\-|
G
Silent and seamless the sound of my weakness
A
Is drowned on the noise of a world with no voice
Bm
And I take it all
A                       G   A
TOnight the night will know


CHORUS

GTR I
   D              A             Bm               G
eb|------------------------------------------------------|
Bb|------------------------------------------------------|
Gb|-777777777-------------------444444444----------------|
Db|-777777777-----777777777-----444444444-----555555555--|
Ab|-555555555-----777777777-----222222222-----555555555--|
Eb|---------------555555555-------------------333333333--|
GTR II
   D              A             Bm               G
eb|------------------------------------------------------|
Bb|------------------------------------------------------|
Gb|-777777777-----999999999-----11-11-11-11---12-12-12-12|
Db|-xxxxxxxxx-----xxxxxxxxx------x--x--x--x----x--x--x--x|
Ab|-555555555-----777777777------9--9--9--9---10-10-10-10|
Eb|------------------------------------------------------|
D
I light the fire for those of us who wept
A                              Bm
for all the heartache that we felt and this is all we need
G
This is all I need

GTR I
   D            F#m          Bm     A     G      A	G    A
eb|--------------------------------------------------------------|
Bb|--------------------------------------------------------------|
Gb|-777777777----------------------------------------------------|
Db|-777777777--444444444-----99999--77777-555555-777777-5555-7777|
Ab|-555555555--444444444-----99999--77777-555555-777777-5555-7777|
Eb|------------222222222-----77777--55555-333333-555555-3333-5555|
ROGEM - > ung GTR II STRUMMING UN HA
GTR II
   D           F#m          Bm      A     G      A
eb|--------------------------------------------------------------|
Bb|--------------------------------------------------------------|
Gb|-7----------11-----------16------14---12-----14------12---14--|
Db|-x-----------x------------x-------x----x------x-------x----x--|
Ab|-5-----------9------------9------12---10-----10------10---10--|
Eb|--------------------------------------------------------------|
D                            F#m
I sing along with each and everyone beneath the sorrow lies
Bm              A                 G                    A
Someone whos reaching out for a hand whos reaching too
G     A
Too

BRIDGE
GTR I
eb|----------|----------|----------|----------|
Bb|----------|----------|----------|----------|
Gb|--7~~~~~x-|---6~~~~~x|---4~~~~~x|----------|
Db|--7~~~~~x-|---7~~~~~x|---4~~~~~x|-5555555--|
Ab|--5~~~~~x-|---4~~~~~x|---2~~~~~x|-5555555--|
Eb|----------|----------|----------|-3333333--|
D (pause)
Take flight when the nightlight's out of sight
D/Db (pause)
Take flight just go and take the night
Bm (pause)
Take flight as we share this drink tonight
G
Take flight its our fight I fight tonight

GTR I
eb|-------------|-------------|------------|------------|
Bb|-------------|-------------|------------|------------|
Gb|--777777777--|--6666666666-|---44444444-|------------|
Db|--777777777--|--7777777777-|---44444444-|-5555555555-|
Ab|--555555555--|--4444444444-|---22222222-|-5555555555-|
Eb|-------------|-------------|------------|-3333333333-|
GTR II
eb|-------------|-------------|------------|------------|
Bb|-------------|-------------|------------|------------|
Gb|---222---222-|---222---222-|---222---222|---777---777|
Db|-------------|-------------|------------|555---555---|
Ab|555---555----|444---444----|222---222---|------------|
Eb|-------------|-------------|------------|------------|
D
Take flight when the nightlight's out of sight
D/Db
Take flight just go and take the night
Bm
Take flight as we share this drink tonight
G
Take flight its our fight I fight tonight

GTR I
eb|-------------|-------------|------------|------------|
Bb|-------------|-------------|------------|------------|
Gb|--777777777--|--6666666666-|---44444444-|------------|
Db|--777777777--|--7777777777-|---44444444-|-5555555555-|
Ab|--555555555--|--4444444444-|---22222222-|-5555555555-|
Eb|-------------|-------------|------------|-3333333333-|
GTR II
eb|-------------|-------------|------------|------------|
Bb|-------------|-------------|------------|------------|
Gb|---222---222-|---222---222-|---222---222|---777---777|
Db|-------------|-------------|------------|555---555---|
Ab|555---555----|444---444----|222---222---|------------|
Eb|-------------|-------------|------------|------------|
D
Take flight when the nightlight's out of sight
D/Db
Take flight just go and take the night
Bm
Take flight as we share this drink tonight
G
Take flight its our fight I fight tonight

REFRAIN
GTR I
   G           A          Bm         A    G       A
eb|-----------------------------------------------------|
Bb|-----------------------------------------------------|
Gb|-----------------------444444444---------------------|
Db|-555555555--777777777--444444444--7777-555555-77777\-|
Ab|-555555555--777777777--222222222--7777-555555-77777\-|
Eb|-333333333--555555555-------------5555-333333-55555\-|
G
Kicking and screaming inside lies a feeling
A
One lowly voice against a backdrop of noise
Bm
Am I on my own
A                   G  A
Tonight ill let you know

HORUS

GTR I
   D              A             Bm               G
eb|------------------------------------------------------|
Bb|------------------------------------------------------|
Gb|-777777777-------------------444444444----------------|
Db|-777777777-----777777777-----444444444-----555555555--|
Ab|-555555555-----777777777-----222222222-----555555555--|
Eb|---------------555555555-------------------333333333--|
GTR II
   D              A             Bm               G
eb|------------------------------------------------------|
Bb|------------------------------------------------------|
Gb|-777777777-----999999999-----11-11-11-11---12-12-12-12|
Db|-xxxxxxxxx-----xxxxxxxxx------x--x--x--x----x--x--x--x|
Ab|-555555555-----777777777------9--9--9--9---10-10-10-10|
Eb|------------------------------------------------------|
D
I light the fire for those of us who wept
A                              Bm
for all the heartache that we felt and this is all we need
G
This is all I need

GTR I
   D            F#m          Bm         A         G      A
eb|--------------------------------------------------------------|
Bb|--------------------------------------------------------------|
Gb|-777777777----------------------------------------------------|
Db|-777777777--444444444-----999999999--777777777-555555-777777--|
Ab|-555555555--444444444-----999999999--777777777-555555-777777--|
Eb|------------222222222-----777777777--555555555-333333-555555--|
ROGEM - > ung GTR II STRUMMING UN HA
GTR II
   D           F#m          Bm           A        G      A
eb|--------------------------------------------------------------|
Bb|--------------------------------------------------------------|
Gb|-7----------11-----------16----------14-------12-----14-------|
Db|-x-----------x------------x-----------x--------x------x-------|
Ab|-5-----------9------------9----------12-------10-----10-------|
Eb|--------------------------------------------------------------|
D                            F#m
I sing along with each and everyone beneath the sorrow lies
Bm              A                 G                    A
Someone whos reaching out for a hand whos reaching too

D   D/Db Bm G (2x)
   You

END WITH G..

ROGEM -> any suggestion and Comment txt 09103887102 send kyo ng Msj sa 
         Friendster Guitarizta_rogem@yahoo.com

|==========================================================================|
|==========================================================================|
|==========================================================================|

this is Gunita part of their new Album named Transit if you want the complete 
tabs of the Album just type in the "song name" inputbar "Transit"
 

"""makikita nyo naman name ko dun ehh qng sino gumawa"""
Related for All We Need tab